Cifra Club

Aprenda

Cristo, Comandante

Harpa Cristã

Cifra: Principal (violão e guitarra)
tom: Db
E|---------8---8-|-8---8---------4-|----------------|-----------------|
B|---------------|---------4-6-8---|-8-------14--14-|-14--14--4-6-8-6-|
G|---------5---5-|-5---5---5-5-5-5-|-6-------0------|-0---0---6-6-6-6-|
D|---------6---6-|-6---6---6-6-6---|---------13--13-|-13--13--5-6-8-5-|
A|-------------8-|-6-------------6-|-6-----------11-|-13------6-6-6-6-|
E|---------------|-----8---4-4-4-4-|-6-------11--13-|-----11----------|

E|---------8---8-|-8---8---4-4-6-8-|-9-------9-9-8-6-|-11--9---8---6-|
B|-4-------------|-------------8-7-|-6-------6-6-6-6-|-9-------------|
G|-5-------5---5-|-5---5---5-------|-----------------|-----8---8---6-|
D|-6-------6---6-|-6---6---6-6-6-6-|-6-------8-8-8-8-|-10--6---6---5-|
A|-------------8-|-6---------------|-----------------|-6-------6---6-|
E|-4-------------|-----8---4-4-4-4-|-9-------6-6-8-9-|-----6---------|

E|-4------------|
B|--------------|
G|-5------------|
D|-6------------|
A|-6------------|
E|-4------------|

Colaboração e revisão:
  • Helon Oliveira
901 exibições
    • ½ Tom
    • A
    • Bb
    • B
    • C
    • Db
    • D
    • Eb
    • E
    • F
    • F#
    • G
    • Ab
  • Adicionar à lista

    0 comentários

    Ver todos os comentários
    00:00 / 00:00
    outros vídeos desta música
    repetir qualidade Automático
    Outros vídeos desta música
    00:00 / 00:00
    Automático

    Cifra Club Pro

    Aproveite o Cifra Club com benefícios exclusivos e sem anúncios
    Cifra Club Pro
    Aproveite o Cifra Club com benefícios exclusivos e sem anúncios
    OK