Cifra Club

Dai-me a Bíblia

Harpa Cristã

Cifra: Principal (violão e guitarra)
Tom: E
E|-8---------8---9--|-8--------8--4-----|--------------9--|-8--9--11-8-------|
B|--------9---------|----11-11--------4-|-6---6-8--9------|-------------11---|
G|-8---8-----8---10-|-8--0--0--8--5---5-|-6---6-8--10--10-|-8--8--8--8--0----|
D|-----10-10--------|----11-11----6---6-|-6---6-----------|----8--10----13---|
A|-11--11-11-11--11-|-10-------10-------|-------11-11--11-|-11-11-11-11------|
E|------------------|-11-11-11-11-4---4-|-9---9-9--9---9--|-------------11---|

E|-8---------8---9--|-8--------8--4-----|--------------9--|-8-----4-3-4----|
B|--------9---------|----11-11--------4-|-6---6-8--9------|----11-1-2-1----|
G|-8---8-----8---10-|-8--0--0--8--5---5-|-6---6-8--10--10-|-8--0--1-3-1----|
D|-----10-10--------|----11-11----6---6-|-6---6-----------|----11-1-1------|
A|-11--11-11-11--11-|-10-------10-------|-------11-11--11-|-11-------------|
E|------------------|-11-11-11-11-4---4-|-9---9-9--9---9--|-11-11-----4----|

E|-11--8--9--11-----|-9--8--------------|-----------8---11-|-8--8-----4-6----|
B|-9---9--11-13--9--|-------11-9--6---9-|-----9--11--------|-------11-3-4----|
G|-----8--8--8------|-10-8--8-----6---6-|-8---------8---8--|-8--8--8--3-0----|
D|-10------------10-|----------10-6---6-|-10--10-11-----10-|-------8--3------|
A|-11--11-11-11--11-|-11-11-11-11-----8-|-11--11-11-11--11-|-11-11-10---6----|
E|------------------|-------------9-----|------------------|-----------------|
exibições 810
Acordes para:
    Colaboração e revisão:
    • Helon Oliveira

    0 comentários

    mostrar mais comentários

    Conseguiu tocar?

    0 tocaram 0 ainda não

    Grave um vídeo tocando Dai-me a Bíblia e mande pra gente!

    00:00 / 00:00
    outros vídeos desta música
    repetir qualidade Automático
    Outros vídeos desta música
    00:00 / 00:00
    Automático
    OK