Cifra Club

Deus Vai Te Guiar

Harpa Cristã

Cifra: Principal (violão e guitarra)
tom: Fm
E|-4-4-3-4-6-4---4-|-4---2---2----|---------8-6-----|-----4--------|
B|-6-6-5-6-7-6-6-6-|-6---4---4----|-7-7-6-7---7-4-6-|-7-------6----|
G|-6-6-6-6-6-6-6-6-|-6---5---5----|-8-8-7-8-----5-6-|-8---5---6----|
D|-------------6---|-6---6---6----|-6-6-6-6-6-6-6-6-|-6---6---6----|
A|-4-4-4-4-4-4-4-4-|--------------|-----------------|---------4----|
E|-----------------|--------------|-4-4-4-4-4-4-4-4-|-4---4--------|

E|-4----------9------|-------9--8--6----|-11-11-6--9-9---4-|-4------------|
B|-6-9--8--9------9--|-8--9--9--9--7----|-7--7-----7-6---6-|-6-6-7-4------|
G|-6-10-9--10-10--10-|-9--10-------6----|-------11-------6-|---6-8-5-6----|
D|---11-11-11-----11-|-11-11-11-11------|-8--8--8--8-6---6-|-6-6-6-4-3----|
A|-4----------11-----|-------8--8--9----|-9--9--9--9-------|---------4----|
E|---9--9--9--9---9--|-9--9-------------|------------------|-4-4-4-4------|

E|-4----4--6-4---|-9-9-8-6------|---------8-6-4-|-----4--------|-4-4-3-4-9------|
B|-6----6--7-6-6-|-9-9-9-7-9----|-7----7--7-7-7-|-7-7-6-7-6----|-6-6-5-6-----9--|
G|-6----6--6-6-6-|---6-6-6-10---|-8----8--8-6-6-|-8-8---8-6----|-6-6-6-6-10--10-|
D|-------------6-|-6-------11---|-10---10-6-6-6-|-6-6-6-6-6----|-------------11-|
A|-4----4--4-4---|-8-8-9-9------|-11---11-------|---------4----|-4-4-4-4-11-----|
E|-------------9-|---------9----|---------------|-4-4-4-4------|---------9---9--|

E|-------9--8--6----|-11-11-6--9-9---4-|-4------------|--------------|
B|-8--9--9--9--7----|-7--7-----7-6---6-|-6-6-7-4------|--------------|
G|-9--10-------6----|-------11-------6-|---6-8-5-6----|--------------|
D|-11-11-11-11------|-8--8--8--8-6---6-|-6-6-6-6-3----|--------------|
A|-------8--8--9----|-9--9--9--9-------|---------4----|--------------|
E|-9--9-------------|------------------|-4-4-4-4------|--------------|

00:00 / 00:00
Outros vídeos desta música
Repetir
Outros vídeos desta música
Composição de Frida Vingren
Colaboração e revisão:
  • Helon Oliveira
24.903 exibições
    • ½ Tom
    • Am
    • Bbm
    • Bm
    • Cm
    • C#m
    • Dm
    • Ebm
    • Em
    • Fm
    • F#m
    • Gm
    • G#m
  • Adicionar à lista

    0 comentários

    Ver todos os comentários

    Entre para oCifra Club PRO

    Tenha acesso a benefícios exclusivos no App e no Site

    • Chega de anúncios

    • Prioridade de compra em lançamentos

    • Mais recursos no app do Afinador

    • Atendimento Prioritário

    • Descontos nos produtos Cifra Club

    • Ajude a produzir mais conteúdo

    00:00 / 00:00

    Cifra Club Pro

    Aproveite o Cifra Club com benefícios exclusivos e sem anúncios
    Cifra Club Pro
    Aproveite o Cifra Club com benefícios exclusivos e sem anúncios
    OK