Cifra Club

Aprenda

Escuta Pobre Pecador

Harpa Cristã

Cifra: Principal (violão e guitarra)
Tom: G
E|----------------|------0---------|-7----7---------|---------7---3-|
B|-------------0--|-0-----------8--|-8----8--10--8--|---------3---3-|
G|-------------0--|-0----0--7---7--|-7----7--7---7--|---------------|
D|-------------12-|-12---10-9---9--|---------10--9--|---------------|
A|----------------|---------10--10-|-10---10-10--10-|---------------|
E|----------------|----------------|----------------|-3---3---3---7-|

E|-5-----------7-|-10---10-7-----|----------------|---------7------|
B|-7-----------8-|-8----8--8---8-|-8----8---------|-0----8------10-|
G|-7-----------0-|-0----0--7---7-|-9----9--9---7--|-7----7--7---7--|
D|---------------|-9----9--------|-10---10-10--9--|-0----9------10-|
A|-5-------------|---------10----|---------10--10-|-10-------------|
E|---------------|-------------7-|-8----8--8------|------10-10--10-|

E|--------------|-10---7--7-5-3-|-3-------------|----------------|--------------|
B|-8------------|-8----8--3---3-|-5----5--5---3-|-0---0---12--0--|-10-----------|
G|-7------------|-0----0----5-4-|------5--5---4-|-0---12--12--12-|-11-----------|
D|-9------------|-9----9--5---5-|-5----5--5---5-|-12--12--12-----|-12-----------|
A|-10-----------|---------------|-3----3--3-----|-----10--10--10-|--------------|
E|--------------|---------------|-------------3-|----------------|-10-----------|

E|------7--7-5-3-|-3-------------|-----3---7---5-|-3------------|
B|------3--3---3-|-5----5--5---3-|-3---3---3---3-|-3------------|
G|-----------5-4-|------5--5---4-|-4---4-------5-|-4------------|
D|---------------|-5----5--5---5-|-5---0---0---0-|-5------------|
A|---------------|-3----3--3-----|-5-------------|--------------|
E|-3----3--3---3-|-------------3-|---------------|--------------|
Colaboração e revisão:
  • Helon Oliveira
1.369 exibições
    • ½ Tom
    • A
    • Bb
    • B
    • C
    • Db
    • D
    • Eb
    • E
    • F
    • F#
    • G
    • Ab
  • Adicionar à lista

    0 comentários

    Mostrar mais comentários
    00:00 / 00:00
    outros vídeos desta música
    repetir qualidade Automático
    Outros vídeos desta música
    00:00 / 00:00
    Automático

    Cifra Club Pro

    Aproveite o Cifra Club com benefícios exclusivos e sem anúncios
    7 dias grátis
    Cifra Club Pro
    Aproveite o Cifra Club com benefícios exclusivos e sem anúncios
    7 dias grátis
    OK