Cifra Club

Herdeiros do Reino

Harpa Cristã

Cifra: Principal
exibições 737
Tom: A
E|-6---5-3---------|---------------|-6---5-3-1-----1-|-1---3--------|
B|-3---6-4-6-----6-|-6-4---4-4---3-|-3---6-4-3---3-3-|-1---1-5-6----|
G|-3---3-3-7---7-7-|-7-5-5-5-5---3-|-3---3-3-3---3-3-|-2---3-5-5----|
D|---------8---8---|-----7-7-8-----|-------------3---|-------5-7----|
A|-------------8-8-|-8---8-8-------|---------1---1-1-|-3---3---8----|
E|-6---6-6-6---6-6-|---------6---6-|-6---6-6---------|-------8------|

E|-8---8-8-10------|-----6---------|-6---8--8--10--6--10-|-10-8-6-5-6----|
B|-6---6-6-6---6-6-|-8---8-8-8---6-|-----------6---6--6--|-6-------------|
G|-------------7-7-|-8-----8-8---7-|-7---10-10-----------|----8-7-5-7----|
D|-7---7-7-8---8-8-|-8---8-8-8---8-|-8---7--7--8---8--8--|-8-------------|
A|-8---8-8---------|-6---6-6-------|-10--8--8------------|-8--8-8-8-8----|
E|-----------------|---------6---6-|---------------10-6--|----------6----|
Acordes para:
    Colaboração e revisão:
    • Helon Oliveira

    0 comentários

      mostrar mais comentários

      Conseguiu tocar?

      0tocaram0ainda não

      Grave um vídeo tocando Herdeiros do Reino e mande pra gente!

      00:00 / 00:00
      outros vídeos desta música
      repetirqualidadeautomática
      Outro vídeos desta música
        00:00 / 00:00
        automática
        OK