Cifra Club

Levantai Vosso Olhos

Harpa Cristã

Cifra: Principal
exibições 2.747
Tom: A
E|---------------6-|-10-10-10-10-10-8-6-8-|-10------6---5-6-|
B|-------------6---|-6--6--6--6--6--------|-6-----------6-6-|
G|-------------7-7-|----------------8-7-8-|---------7---5---|
D|-------------8-8-|-8--8--8--8--8--8-8-8-|-8-------8-----8-|
A|-----------------|----------------------|-------------8-8-|
E|-------------6-6-|-6--6--6--6--6--6-6-6-|-6-------6-------|

E|-8---8---8-10-8-6-5-3-|-1-----------6--8--|-10-10-10-10-10-10-10-8-10-|
B|-6---6---6----6-5---5-|-1-----------6-----|-6--6--6--6--6--6--6----6--|
G|-----5---7----7-5---3-|-2--------------10-|---------------------------|
D|-7--------------------|---------3-1-8--7--|-8--8--8--8--8--8--8----8--|
A|-8------------------3-|-------3-----------|---------------------------|
E|-----5---6----6-8-----|-1---5-------10-8--|-6--6--6--6--6--6--6----6--|

E|-11----------11-8--|-6---5-6-10--8-|-6-----------6-8-10-|
B|-8-------8---------|---------6-----|-------------6------|
G|---------8---8--8--|-7---5-7-----8-|-7-----------7-5-10-|
D|-8-------8---10----|---------------|-------------8-7-8--|
A|----------------10-|-8---8---8---8-|-8---------------11-|
E|-11------11--8--11-|---------------|-6------------------|

E|-11--------------11-10-8--|-10-----------5-6-|-8---8---8-10-8-6-5-3-|
B|----8--8--8--8---8-----8--|-6--6-6-6-6---6-6-|-6---6---6----6-8-6-5-|
G|-8------------------------|----------------0-|----------------5---3-|
D|-8--8--8--8--8---8-----8--|-8--8-8-8-8-------|-7-7-7-7-7----7-------|
A|-10-----------------------|--------------8---|-8-8-8-8-8----8-----3-|
E|----11-11-11-11--11----11-|-6--6-6-6-6---8-8-|----------------8-----|

E|-------------6-8-10-|-11--------------11-10-8--|-10-----------10-10-8--|
B|-6---6---6---6---6--|----8--8--8--8---8-----8--|-6--6-6-6-6------------|
G|-5---5---5---7-5----|-8------------------------|--------------10-10-10-|
D|-7-7-7-7-7---8-7-8--|-8--8--8--8--8---8-----8--|-8--8-8-8-8---8--8--8--|
A|-8-8-8-8-8-------11-|--------------------------|--------------------8--|
E|--------------------|-11-11-11-11-11--11----11-|-6--6-6-6-6---10-10----|

E|-----------10--8--|-6------------|
B|-11--10-11--------|--------------|
G|-0---10----10--8--|-7------------|
D|-12--10-12--------|--------------|
A|-13--------13--12-|-8------------|
E|-----13----13--13-|-6------------|
Acordes para:
    Colaboração e revisão:
    • Helon Oliveira

    0 comentários

      mostrar mais comentários

      Conseguiu tocar?

      0tocaram0ainda não

      Grave um vídeo tocando Levantai Vosso Olhos e mande pra gente!

      00:00 / 00:00
      outros vídeos desta música
      repetirqualidadeautomática
      Outro vídeos desta música
        00:00 / 00:00
        automática
        OK