Cifra Club

Manhã da Ressurreição

Harpa Cristã

Cifra: Principal (violão e guitarra)
Tom: G
E|-7----7--7---7-|---------7---5-|------0------0-|-5---5---5----|-7----7--7---7--|
B|-3----3--3---3-|---------3-----|-8----8--7---8-|-7---8---7----|-8----8--8---8--|
G|---------------|-------------5-|-0-------8-----|-7---6---7----|-7----7--7---7--|
D|-5----5--5---5-|---------5---0-|-9----9--9---9-|-0-------0----|----------------|
A|---------------|-------------9-|-7----7------7-|-----0--------|-10---10-10--10-|
E|-3----3--3---3-|-3---3---3-----|---------7-----|--------------|----------------|

E|-----8---7---5-|-3-----------2-|-3------------|--------------|
B|-----7---8---5-|-3---2---1---1-|-0------------|--------------|
G|---------0---5-|-4---3---2---2-|-0------------|--------------|
D|-----7---------|-0-----------0-|--------------|--------------|
A|-----0---------|---------------|--------------|--------------|
E|-3-------7---8-|---------------|-3------------|--------------|
exibições 526
Acordes para:
    Colaboração e revisão:
    • Helon Oliveira

    0 comentários

    mostrar mais comentários

    Conseguiu tocar?

    0 tocaram 0 ainda não

    Grave um vídeo tocando Manhã da Ressurreição e mande pra gente!

    00:00 / 00:00
    outros vídeos desta música
    repetir qualidade Automático
    Outros vídeos desta música
    00:00 / 00:00
    Automático
    OK