Cifra Club

Mãos Ao Trabalho

Harpa Cristã

Cifra: Principal
exibições 658
Tom: A
E|-8---------8---8--|-10------8----|------------------|--------------|
B|-10--10-11-10--10-|-11------10---|---------------8--|-10-----------|
G|-----10-12--------|--------------|-10--10-10-10--9--|-10-----------|
D|------------------|--------------|-7---7--7--7---10-|-10-----------|
A|-8---8--8--8---8--|-8-------8----|-8---8--8--8------|-8------------|
E|------------------|-6------------|---------------8--|--------------|

E|-8---------8---8--|-10------8----|---------5---3-|--------------|
B|-10--10-11-10--10-|-11------10---|-----8---5---5-|-6------------|
G|-----10-12--------|--------------|-10--10--5---3-|--------------|
D|------------------|--------------|-10--12--------|-7------------|
A|-8---8--8--8---8--|-8-------8----|-12--13------3-|-8------------|
E|------------------|-6------------|---------------|--------------|

E|-0---0-0-0---5-|-6----5--0----|-5---5-5-5---7-|-0------------|
B|-8---8-8-8---6-|-8----6--8----|-6---6-6-6---6-|-13-----------|
G|-5---5-5-5---5-|-5-------5----|-5---5-5-----0-|-0------------|
D|---------------|--------------|---------7---0-|--------------|
A|---------------|--------------|-8---8-8-8-----|--------------|
E|-8---8-8-8---8-|-8-------8----|---------------|-8------------|

E|-8---------8---8--|-10------8----|---------5-----|--------------|
B|-10--10-11-10--10-|-11------10---|-----8---5---8-|--------------|
G|-----10-12--------|--------------|-10--10--5---9-|-10-----------|
D|------------------|--------------|-10--12------8-|-7------------|
A|-8---8--8--8---8--|-8-------8----|-12--13--------|-8------------|
E|------------------|-6------------|-------------8-|--------------|
Acordes para:
    Colaboração e revisão:
    • Helon Oliveira

    0 comentários

      mostrar mais comentários

      Conseguiu tocar?

      0tocaram0ainda não

      Grave um vídeo tocando Mãos Ao Trabalho e mande pra gente!

      00:00 / 00:00
      outros vídeos desta música
      repetirqualidadeautomática
      Outro vídeos desta música
        00:00 / 00:00
        automática
        OK