Cifra Club

Aprenda

Morri Na Cruz Por Ti

Harpa Cristã

Cifra: Principal (violão e guitarra)
Tom: C
E|---------------------------|------8--------0---0---------|
B|----------8--8---8------8--|-10---10-12-10-8---8--0---8--|
G|----------9--9---9--9---9--|-10------12-10-0---0--10-----|
D|----------10-10--10-10--10-|-10---------10-10--10-12--9--|
A|--------------------10-----|-8----------8---------10--10-|
E|----------8--8---8--8---8--|-----------------------------|

E|---------------------------|------8--------0---0-7-5-7-|
B|----------8--8---8------8--|-10---10-12-10-8---8-6---6-|
G|-9--------9--9---9--9---9--|-10------12-10-0---0-7---7-|
D|-10-------10-10--10-10--10-|-10---------10-10----5---5-|
A|-10-----------------10-----|-8----------8--------------|
E|-8--------8--8---8--8---8--|---------------------------|

E|-8--------8--10--10-10-8--7--|-8---8-0--8--7---7-7-5-7-|-8--------8--8--------|
B|-5--------5--0---0--0--------|-5---5-8--5--6---6-6---6-|-5--------5--5--------|
G|-5--------5--10--10-10-9--7--|-5---5-5--5--7---7-7-----|----------5-----------|
D|-----------------------10----|-------------5---5-5---5-|-5-----------5--------|
A|-------------10--10-10----10-|-------------------------|----------------------|
E|-8--------8------------------|-8---8-8--8--------------|-8--------8--8--------|
Colaboração e revisão:
  • Helon Oliveira
4.327 exibições
    • ½ Tom
    • A
    • Bb
    • B
    • C
    • Db
    • D
    • Eb
    • E
    • F
    • F#
    • G
    • Ab
  • Adicionar à lista

    0 comentários

    Mostrar mais comentários
    00:00 / 00:00
    outros vídeos desta música
    repetir qualidade Automático
    Outros vídeos desta música
    00:00 / 00:00
    Automático

    Cifra Club Pro

    Aproveite o Cifra Club com benefícios exclusivos e sem anúncios
    7 dias grátis
    Cifra Club Pro
    Aproveite o Cifra Club com benefícios exclusivos e sem anúncios
    7 dias grátis
    OK