Cifra Club

Aprenda

Não Há Separação Na Glória

Harpa Cristã

Cifra: Principal (violão e guitarra)
Tom: Bb
E|---------------|-10-9-10-8-6-----|-----------------|-------------------|
B|-------------6-|-6--5-6--------6-|-8---6-------6-8-|-6---4-------8--10-|
G|-------------7-|---------8-7---7-|-8---7-------7-8-|-7---5-------8--8--|
D|-------------8-|-8--8-8--8-----8-|-8---8-------8-8-|-8---7-------10-10-|
A|---------------|-----------8-----|-----------------|-8---8-------8--8--|
E|-------------6-|-6--6-6--6-6---6-|-6---6-------6-6-|-------------------|

E|---------------|-10-9-10-8-6-----|-------------6-|-5-6-8--10-11-----|
B|-8---6-------6-|-6----6--------6-|-8---6-------6-|-6-6-10-10-10--10-|
G|-8---7-------7-|----9----8-7---7-|-8---7---------|-5-7-8---------10-|
D|-8---8-------8-|-8--8-8--8-----8-|-8---8-------8-|--------12-10--13-|
A|---------------|-----------8-----|-------------5-|-8-8-8--8---------|
E|-6---6-------6-|-6--6-6--6-6---6-|-6---6---------|-----------13--13-|

E|--------------|
B|-11-----------|
G|-10-----------|
D|-12-----------|
A|-13-----------|
E|--------------|
Colaboração e revisão:
  • Helon Oliveira
284 exibições
    • ½ Tom
    • A
    • Bb
    • B
    • C
    • Db
    • D
    • Eb
    • E
    • F
    • F#
    • G
    • Ab
  • Adicionar à lista

    0 comentários

    Mostrar mais comentários

    Conseguiu tocar?

    0 Tocaram 0 Ainda não

    Grave um vídeo tocando Não Há Separação Na Glória e mande pra gente!

    00:00 / 00:00
    outros vídeos desta música
    repetir qualidade Automático
    Outros vídeos desta música
    00:00 / 00:00
    Automático

    Cifra Club Pro

    Aproveite o Cifra Club com benefícios exclusivos e sem anúncios
    7 dias grátis
    Cifra Club Pro
    Aproveite o Cifra Club com benefícios exclusivos e sem anúncios
    7 dias grátis
    OK