Cifra Club

Aprenda

O Amor Inesgotável

Harpa Cristã

Cifra: Principal (violão e guitarra)
Tom: G
E|-5----3---------------|----------5--3--------|-5----3---1--1--------|
B|-6----5---6--6--------|------6---6--5--------|-6----5---3--3---3-3--|
G|-5----3---7--7---7-7--|-5----5---5--5--------|-5----3---2--3---3-3--|
D|----------7--8---8-8--|-7----7---------------|-3--------0------3-3--|
A|-8----3---5------8-8--|-8----8---8--3--------|------3------1---1-1--|
E|-------------6---6-6--|----------------------|----------------------|

E|-----1-0--3--1--------|------10----------------|------10----------------|
B|-1---1-1--1--1--------|-13-------13-13--10-13--|-13-------13-13--10-8---|
G|-2---2-0--3--2--------|-10---10--10-10--10-10--|-10---10--12-10--10-9---|
D|-3-----------3--------|----------10-10--10-10--|-----------------10-10--|
A|-3-----3--3-----------|-12---13--12-12-----12--|-12---12--13-12---------|
E|-------------1--------|-13--------------13-----|-13---10--12-13--13-8---|

E|----------1--1--------|-----1-0--3--1--------|----------------------|
B|-10---8---3--3---3-3--|-1---1-1--1--1--------|----------------------|
G|-10---9---2--3---3-3--|-2---2-3--3--2--------|----------------------|
D|-10---8---0------3-3--|-3-----------3--------|----------------------|
A|-8-----------1---1-1--|-3-----3--3-----------|----------------------|
E|------8---------------|-------------1--------|----------------------|
Colaboração e revisão:
  • Helon Oliveira
622 exibições
    • ½ Tom
    • A
    • Bb
    • B
    • C
    • Db
    • D
    • Eb
    • E
    • F
    • F#
    • G
    • Ab
  • Adicionar à lista

    0 comentários

    Mostrar mais comentários
    00:00 / 00:00
    outros vídeos desta música
    repetir qualidade Automático
    Outros vídeos desta música
    00:00 / 00:00
    Automático

    Cifra Club Pro

    Aproveite o Cifra Club com benefícios exclusivos e sem anúncios
    7 dias grátis
    Cifra Club Pro
    Aproveite o Cifra Club com benefícios exclusivos e sem anúncios
    7 dias grátis
    OK