Cifra Club

Aprenda

O Áureo Dia

Harpa Cristã

Cifra: Principal (violão e guitarra)
Tom: G
E|-------------------|----------------------10-|-9-7-7-7-7---7-7-|
B|----------------10-|-15-15-15-15-15-10-7--0--|-8-8-8-8-8---8-8-|
G|-------------11----|-11-11-11-11-11-11-7--11-|-6-6-6-6-6---6---|
D|-------------12-12-|-0--0--0--0--0--0--0--0--|---------------9-|
A|-------------------|-12-12-12-12-12-12-12----|-7-7-7-7-7---7-7-|
E|-------------------|-------------------------|-----------------|

E|-9--9--9--7-----7-7--|-------------------|----------------------10-|
B|-10-10-10-8-8-8------|-10-------------10-|-15-15-15-15-15-10-7--0--|
G|------------9-9-9-10-|-11----------11----|-11-11-11-11-11-11-7--11-|
D|-7--7--7--7-7-7-7-7--|-0-----------12-12-|-0--0--0--0--0--0--0--0--|
A|-0--0--0--0-0-0-0-0--|-12----------12-12-|-12-12-12-12-12-12-12----|
E|---------------------|-------------------|-------------------------|

E|-9--7-7-7-7---7-7-|-9--9--9--7--------7-9-|-10---------------|
B|-10-8-8-8-8---8-8-|-10-10-10----10-10-8-8-|-7-----------7-10-|
G|-6--6-6-6-6---6---|----------12-12-12-----|-------------7-7--|
D|----------------9-|-7--7--7--7--7--7--7-7-|-7----------------|
A|-7--7-7-7-7---7-7-|-0--0--0--0--0--0--0-0-|------------------|
E|------------------|-----------------------|-10---------------|

E|-10------------------10-|-9---7-------7-7-|-9----------7-0-7-|
B|-7--------------10-7-7--|-8---8-------8-8-|-10---------8-8-5-|
G|------------------------|-6---6-----------|------------------|
D|----7--7--7--7----------|-----------------|----7-7-7-7-------|
A|------------------------|-7---7-----------|----0-0-0-0-------|
E|----10-10-10-10---------|-----------------|------------------|

E|-5----------------|-10-------------10-12-10-|-9---7-------7-7-|
B|-7-----------7-10-|-7--------------7--7--7--|-8---8-------8-8-|
G|-------------7-7--|-------------------------|-9---9-------0-0-|
D|---7-7-7-7--------|----0--0--0--0-----------|-------------9-9-|
A|---5-5-5-5--------|----12-12-12-12----------|-10--10----------|
E|------------------|-------------------------|-----------------|

E|-9--9--9--7--------7-9-|-10-----------|
B|-10-10-10----10-10-8-8-|-7------------|
G|----------12-12-12---0-|--------------|
D|-7--7--7--7--7--7--7---|-7------------|
A|-0--0--0--0--0--0----0-|--------------|
E|-------------------9---|-10-----------|
Colaboração e revisão:
  • Helon Oliveira
1.186 exibições
    • ½ Tom
    • A
    • Bb
    • B
    • C
    • Db
    • D
    • Eb
    • E
    • F
    • F#
    • G
    • Ab
  • Adicionar à lista

    0 comentários

    Mostrar mais comentários
    00:00 / 00:00
    outros vídeos desta música
    repetir qualidade Automático
    Outros vídeos desta música
    00:00 / 00:00
    Automático

    Cifra Club Pro

    Aproveite o Cifra Club com benefícios exclusivos e sem anúncios
    7 dias grátis
    Cifra Club Pro
    Aproveite o Cifra Club com benefícios exclusivos e sem anúncios
    7 dias grátis
    OK