Cifra Club

Aprenda

O Rei da Glória

Harpa Cristã

Cifra: Principal (violão e guitarra)
Tom: C
E|----------------|-0-----------12-|-10--8---7---12-|-10--8---7---8-7-|
B|-------------0--|-0---10--12--8--|-7---5-------8--|-8---5-7-8---8---|
G|-------------0--|-12--11--12-----|---------7------|-0---5---0---9---|
D|-------------12-|-----12--12--10-|-7---5-7-9---10-|-9---7-----------|
A|----------------|---------10-----|-----7-9-10-----|---------7-------|
E|----------------|-12--10------8--|-10----------8--|-------------8---|

E|-5-------3------|-0-----------12-|-10--8---7---12-|-10--8---7---8-7-|
B|-8---7---3---0--|-0---10--12--8--|-7---5-------8--|-8---5-7-8---8---|
G|-----7-5-4---0--|-12--11--12-----|---------7------|-0---5---0---9---|
D|-7-----------12-|-----12--12--10-|-7---5-7-9---10-|-9---7-----------|
A|-5--------------|---------10-----|-----7-9-10-----|---------7-------|
E|---------3------|-12--10------8--|-10----------8--|-------------8---|

E|-5-------3---10-|-12---12---5---5---|-10--------3---7-|-5-----0-----7-5-|
B|-8---7---3---0--|-8----10-8-7---7---|-8-------6-5---3-|-5---8---7---3---|
G|-----7-5-4---12-|-9--7------7---7---|-7---------5-----|-6---7---7---4---|
D|-7--------------|------11---0---0---|----10-----------|-----9---7-------|
A|-5-----------10-|------0------------|----0------3-----|-----------------|
E|---------3------|-8--7------------8-|-7-----3-------3-|-5---7-9-10--3---|

E|-------------10-|-12------8---7-|-0-------3----|
B|-5-----------8--|-8-------5-7-8-|-10--7---3----|
G|-7---6---7---7--|---------5---7-|-12--7-5-4----|
D|-----7-5-0------|-10------------|-----0--------|
A|-7-------9------|---------------|--------------|
E|-5-----------7--|-8---3---5---7-|-8-------3----|
Composição de H. Maxwell Wrigth
Colaboração e revisão:
  • Helon Oliveira
1.327 exibições
    • ½ Tom
    • A
    • Bb
    • B
    • C
    • Db
    • D
    • Eb
    • E
    • F
    • F#
    • G
    • Ab
  • Adicionar à lista

    0 comentários

    Mostrar mais comentários
    00:00 / 00:00
    outros vídeos desta música
    repetir qualidade Automático
    Outros vídeos desta música
    00:00 / 00:00
    Automático

    Cifra Club Pro

    Aproveite o Cifra Club com benefícios exclusivos e sem anúncios
    7 dias grátis
    Cifra Club Pro
    Aproveite o Cifra Club com benefícios exclusivos e sem anúncios
    7 dias grátis
    OK