Cifra Club

Aprenda

Oh Quão Cego Andei

Harpa Cristã

Cifra: Principal (violão e guitarra)
Tom: F
e-------------------------------------------------------------------------------------
b-------------------------------------------------------------------------------------
g-------------------------------------------------------------------------------------
d-----0--2---2---2---2------2-------2-------3---2-----0--------0----------------------
a--3-----------------------------------------------------------3----------------------
e-------------------------------------------------------------------------------------

e----------------------------------------------------------------------------------
b----------------------------------------------------------------------------------
g----------------------------------------------------------------------------------
d---0-----2---3-----3-----3------5-----5-----5---3---2----2--------2-----2-----2---
a----------------------------------------------------------------------------------
e----------------------------------------------------------------------------------

e-------------------------------------------------------------------------------
b-------------------------------------------------------------------------------
g-------------------------------------------------------------------------------
d--2---5---3-----3-----3----3---3--2---0----0---3----2---2--2-------2--2--------
a-------------------------------------------------------------------------------
e-------------------------------------------------------------------------------

e----------------------------------------------------------------------------------
b----------------------------------------------------------------------------------
g----------------------------------------------------------------------------------
d----0------------2---0--0----0----0-0--------------3--2--0------------------------
a---------3---3------------------------------3---2----------------3----------------
e----------------------------------------------------------------------------------
Colaboração e revisão:
  • Eduardo Leal
40.832 exibições
  • Simplificar cifra
    • ½ Tom
    • A
    • Bb
    • B
    • C
    • Db
    • D
    • Eb
    • E
    • F
    • F#
    • G
    • Ab
  • Adicionar à lista

    0 comentários

    Mostrar mais comentários
    00:00 / 00:00
    outros vídeos desta música
    repetir qualidade Automático
    Outros vídeos desta música
    00:00 / 00:00
    Automático

    Cifra Club Pro

    Aproveite o Cifra Club com benefícios exclusivos e sem anúncios
    7 dias grátis
    Cifra Club Pro
    Aproveite o Cifra Club com benefícios exclusivos e sem anúncios
    7 dias grátis
    OK