Cifra Club

Aprenda

Olhando Para o Calvário

Harpa Cristã

Cifra: Principal (violão e guitarra)
Tom: D
E|---------1-3-5-8-|-10------8----|-10-8-5----------|--------------|
B|-1----3--1-1-6-6-|-6-------6----|-6--6-6-8-----8--|-10-----------|
G|-2----3--2-3-5---|--------------|------5-9-10--9--|-10-----------|
D|-3----3--3-3---7-|-8-------7----|-8--7---8-7---10-|-10-----------|
A|-------------8-8-|---------8----|-8--8-8-8--------|-8------------|
E|-----------------|-6------------|----------10--8--|--------------|

E|---------1---5-8-|-10------8----|-10-8-5---5---3-|--------------|
B|-1----3--1-8-6-6-|-6-------6----|-6--6---6-6---5-|-6------------|
G|-2----3--2---5---|--------------|------5-7-5---3-|--------------|
D|-3----3--3-8---7-|-8-------7----|-8--8---7-------|-7------------|
A|-----------8-8-8-|---------8----|-8--8-8-5-----3-|-8------------|
E|-----------------|-6------------|----------8-----|--------------|

E|-8-8-5-5-10--8--|-6------------|-6-6-0-0-8---6-|-5------------|
B|-7-7-7-7-7---10-|-8------------|-5-5-8-8-5---8-|-6------------|
G|-7-7-7-7-7---7--|-7------------|-5-5-5-5-5---5-|-5------------|
D|-0-0-0-0-0------|--------------|---------------|--------------|
A|-------------9--|-10-----------|-------------7-|-8------------|
E|----------------|--------------|-8-8-8-8-8-----|--------------|

E|-------------5-8-|-10------8----|-10-8-5---5---3-|--------------|
B|---------6-8-6-6-|-6-------6----|-6--6---6-6---5-|-6------------|
G|-5----7--5---5---|--------------|------5-7-5---3-|--------------|
D|-7----8--7-8---7-|-8-------7----|-8--8---7-------|-7------------|
A|-8----8--8-8-8-8-|---------8----|-8--8-8-5-----3-|-8------------|
E|-----------------|-6------------|----------8-----|--------------|
Colaboração e revisão:
  • Helon Oliveira
627 exibições
    • ½ Tom
    • A
    • Bb
    • B
    • C
    • Db
    • D
    • Eb
    • E
    • F
    • F#
    • G
    • Ab
  • Adicionar à lista

    0 comentários

    Mostrar mais comentários
    00:00 / 00:00
    outros vídeos desta música
    repetir qualidade Automático
    Outros vídeos desta música
    00:00 / 00:00
    Automático

    Cifra Club Pro

    Aproveite o Cifra Club com benefícios exclusivos e sem anúncios
    7 dias grátis
    Cifra Club Pro
    Aproveite o Cifra Club com benefícios exclusivos e sem anúncios
    7 dias grátis
    OK