Cifra Club

Aprenda

Quando Para o Céu Nós Formos

Harpa Cristã

Cifra: Principal (violão e guitarra)
Tom: G
E|-------------8--|-----------------0-|-1---1---1-0---0-|-1---3--------|
B|-8---8---8------|-------8--10-8---1-|-3---3---3-1-3-1-|-3---0---5----|
G|-9---9---9---9--|-9--10-9--10-9---0-|-4---4---0---4---|-4---0---5----|
D|-10--10--10-----|-10-12-10----10----|-------------5---|---------5----|
A|-------------10-|-10--------------3-|-----------------|--------------|
E|-8---8---8---8--|-8-----8-----8-----|-3---3---3---3---|-3---3---8----|

E|-0---8---8---0-|-5---8---8---5-|-0---8---8-7-5-7-|-8---------------|
B|-8---5---5---8-|-6---6---6---4-|-8---5---6-6-6-6-|-5---6---5---5-8-|
G|-5---0---0---5-|-5-----------5-|-5---5---7-7-----|-----------------|
D|---------------|-----7---7---4-|-5---5---5-5-5-5-|-5---7---5-------|
A|---------------|-8---8---8-----|-----------------|-----------------|
E|-8---8---8---8-|---------------|-----------------|-8---8---8-------|

E|-8-----------7-5-|-0---------------|-8---8--8--------------|
B|-----5-5-5---8-6-|-8-------5---8-8-|-----8--8--13-13-12-13-|
G|-------------5-5-|-5-------5-------|-----0--0--11----11-11-|
D|-----5-5-5-------|---------5-------|-----------0-----0--0--|
A|-----------------|-----------------|-----------12----12-12-|
E|-----8-8-8---8-8-|-8-------8-------|-----12-12-------------|

E|-10-----------------8-|-12------------8--|-8--------------|-0---8---8-7-5-7-|
B|-0--0--0--0--0----8---|-----8--8--8---8--|---------10--10-|-8---5---6---6---|
G|-10-10-10-10-10-------|------------------|-10------10--8--|-0---5---7---7---|
D|--------------------0-|-----10-10-----8--|---------10--10-|-10--5---5---5---|
A|-10-10-10-10-10-8-7---|-----------10-----|-12------8---9--|-----------------|
E|----------------------|-8-------------12-|-13-------------|-----------------|

E|-8------------|--------------|
B|-5-5-6-6-5----|--------------|
G|-5------------|--------------|
D|---5-7-7-5----|--------------|
A|--------------|--------------|
E|-8-8-8-8-8----|--------------|
Colaboração e revisão:
  • Helon Oliveira
479 exibições
    • ½ Tom
    • A
    • Bb
    • B
    • C
    • Db
    • D
    • Eb
    • E
    • F
    • F#
    • G
    • Ab
  • Adicionar à lista

    0 comentários

    Mostrar mais comentários

    Conseguiu tocar?

    0 Tocaram 0 Ainda não

    Grave um vídeo tocando Quando Para o Céu Nós Formos e mande pra gente!

    00:00 / 00:00
    outros vídeos desta música
    repetir qualidade Automático
    Outros vídeos desta música
    00:00 / 00:00
    Automático

    Cifra Club Pro

    Aproveite o Cifra Club com benefícios exclusivos e sem anúncios
    7 dias grátis
    Cifra Club Pro
    Aproveite o Cifra Club com benefícios exclusivos e sem anúncios
    7 dias grátis
    OK