Notificações Amigos pendentes

      Harpa Cristã

      Sobre As Ondas do Mar

      15.432 exibições
      Tom: G
      
      E|------------3-7---3-7--10-10-|-8--0-0-8--10-8-7-3-7-10--------|
      B|----------3---3-3-3-3--0--0--|------8-5--0--0-3-3-3-----13-12-|
      G|-----------------------10-10-|-9--0-0-5-----------------12-12-|
      D|----------5-5-5-5-5-5--------|-10--------0--0-5-5-5-12--0--0--|
      A|-----------------------10-10-|----------------------10--10-10-|
      E|--------------3-7-3-3--------|-8--8-8-8-------3-7-3-10--------|
      
      
      E|----------10----7---3-7--10-10-|-8--0-0-8--10----7-3-7-5---5-|
      B|-10-------0--13-3-3-3-3--0--0--|------8-5--0--13-3-3-3-7-7---|
      G|-11----------------------10-10-|-9--0-0-5----------------5-5-|
      D|-0--------0--0--5-5-5-5--------|-10--------0--0--5-5-5-4-7-0-|
      A|-12----------12----------10-10-|--------------12-------5-5-9-|
      E|----------------3-7-3-3--------|-8--8-8-8--------3-7-3-------|
      
      
      E|-3--------10-10-10-7--7--7---10-10-|-12-8-8-8--10-8--7-3-7-10--------|
      B|-0--------0--0--8--8--8--8---0--0--|-8--5-5-5--0-----8-3-3-----13-12-|
      G|-0--------0--0--0--7--7--7---0--0--|-0--5-5-5--------0-0---12--12-12-|
      D|----------------9------------------|-10--------0--0--0---5-----0--0--|
      A|-------------------10-10-10--------|----7-7-7-----12-------10--12-10-|
      E|-3---------------------------------|-------------------7-3-10--------|
      
      
      E|----------10----7---3-7--10-10-|-8--0-0-8--10----7-3-7-5---5-|
      B|-10-------0--13-3-3-3-3--0--0--|------8-5--0--13-3-3-3-7-7---|
      G|-11----------------------10-10-|-9--0-0-5----------------5-5-|
      D|-0--------0--0--5-5-5-5--------|-10--------0--0--5-5-5-4-7-0-|
      A|-9-----------12----------10-10-|--------------12-------5-5-9-|
      E|----------------3-7-3-3--------|-8--8-8-8--------3-7-3-------|
      
      
      E|-3--------------------|
      B|-0--------------------|
      G|-0--------------------|
      D|----------------------|
      A|----------------------|
      E|-3--------------------|
      
      
          G#
      Oh! Por que duvidar,
               C#
      Sobre as ondas do mar,
              G#      Fm     F#    D#
      Quando Cristo caminho abriu?
                G#                    C#
      - Quando forçado és, contra as ondas lutar,
           G#        D#     G#  C# G#
      Seu amor a ti quer revelar.
      
               G#
      Solta o cabo da nau
                C#
      Toma os remos na mão,
          G#        Fm    F#    D#
      E navega com fé em Jesus;
          G#                 C#
      E então, tu verás que bonança se faz
               G#     D#      G# C# G#
      Pois com Ele, seguro serás.
      
               G#
      Trevas vêm te assustar,
               C#
      Tempestades no mar?
              G#      Fm     F#    D#
      - Da montanha o Mestre te vê;
                G#
      E na tribulação
           C#
      Ele vem socorrer,
          G#        D#     G#  C# G#
      Sua mão bem te pode suster.
      
            G#
      Podes tu recordar,
             C#
      Maravilhas, sem par?
             G#      Fm     F#    D#
      - No deserto ao povo fartou;
              G#
      E o mesmo poder
           C#
      Ele sempre terá,
          G#        D#     G#  C# G#
      Pois não muda e não falhará.
      
            G#
      Quando pedes mais fé,
             C#
      Ele ouve, ó crê!
             G#      Fm     F#    D#
      Mesmo sendo em tribulação;
              G#                   C#
      Quando a mão de poder o teu "ego” tirar,
          G#        D#     G#  C# G#
      Sobre as ondas poderás andar.
        Composição: Erik JansonColaboração e revisão:
        • librelato
        • Helon C.O.

        Comentários 0

        140 .
        140 cancelar

        conseguiu tocar?

        covers

        Grave um vídeo tocando Sobre As Ondas do Mar e mande pra gente!

        Ex.: http://www.youtube.com/watch?v=0IvSvIwGdwk
        ver covers de outras músicas »
        0:00 / 0:00

        Capítulos

          1 versão de gaita exibições contribuição e correção
          1 versão de partiturasformatodownloadscontribuição
          play/pausefechar subir/descer velocidade
          6ª corda E5ª corda A4ª corda D3ª corda G2ª corda B1ª corda E
            acordes
            publicidade
            fechar
            ok