Cifra Club

Aprenda

Sou Mui Feliz

Harpa Cristã

Cifra: Principal (violão e guitarra)
Tom: G
E|-4---6---8-|-11------8--|---------9--|-8--------|------------|-8-------6-|
B|-4---4---4-|------------|-9----------|-4--------|-6---8---9--|-----------|
G|-5---6---5-|-8-------8--|---------10-|----------|-8---8---8--|-7-------7-|
D|-6---6---6-|------------|-11--10-----|-6--------|-10--10--10-|-6---------|
A|-----------|-11------11-|-11------11-|----------|-11--10--8--|---------8-|
E|-----------|-8-------11-|-13--11--9--|-4--------|------------|-6-------6-|

E|-6--------|-6---11--9--|-8----------|-8-------0--|---------6-|-8-------8--|
B|----------|-8---9---11-|---------9--|---------11-|-9-------6-|---------7--|
G|-8--------|-6----------|-8-------10-|-9-------0--|-10--------|-8----------|
D|----------|-----10--8--|------------|------------|-6-------6-|-6-------7--|
A|-10-------|-6---8---10-|-11------11-|-10---------|-8---------|-6----------|
E|-11-------|------------|---------13-|-8-------8--|---------9-|---------11-|

E|-9----------|-4--------|----------|
B|-8-------8--|-4--------|----------|
G|---------8--|-5--------|----------|
D|-8-------11-|----------|----------|
A|------------|----------|----------|
E|-11------11-|-4--------|----------|
Colaboração e revisão:
  • Helon Oliveira
453 exibições
    • ½ Tom
    • A
    • Bb
    • B
    • C
    • Db
    • D
    • Eb
    • E
    • F
    • F#
    • G
    • Ab
  • Adicionar à lista

    0 comentários

    Mostrar mais comentários
    00:00 / 00:00
    outros vídeos desta música
    repetir qualidade Automático
    Outros vídeos desta música
    00:00 / 00:00
    Automático

    Cifra Club Pro

    Aproveite o Cifra Club com benefícios exclusivos e sem anúncios
    7 dias grátis
    Cifra Club Pro
    Aproveite o Cifra Club com benefícios exclusivos e sem anúncios
    7 dias grátis
    OK