Cifra Club

Aprenda

Sua Palavra Revelada

Harpa Cristã

Cifra: Principal (violão e guitarra)
Tom: C
E|---------12-|-10------8--|-7----10-8-----|----------|------------|-0----------|
B|-8----------|------------|------0-----10-|-8--------|-8-------10-|-13--12--12-|
G|-9-------9--|-10------10-|-10------9--10-|-9---9----|---------10-|-0-------0--|
D|-10---------|------------|-12---------10-|-10--10---|-10------10-|-----12--12-|
A|---------10-|-12------12-|-10------10----|-----10---|-7----------|------------|
E|-8-------8--|-8-------8--|---------8-----|-8---8----|---------13-|------------|

E|-10---------|-3--------|---------12-|-10------8--|-7----10-8-----|----------|
B|-----13--10-|----------|-8----------|------------|------0-----10-|-8--------|
G|-11------10-|-4--------|-9-------9--|-10------10-|-10------9--10-|-9---9----|
D|---------10-|----------|-10---------|------------|-12---------10-|-10--10---|
A|-12---------|----------|---------10-|-12------12-|-10------10----|-----10---|
E|-10------10-|-3--------|-8-------8--|-8-------8--|---------8-----|-8---8----|

E|---------8--|-10---------|-----0-------|-0--------|
B|-8-------8--|-----13--10-|-0---10-12---|-13-------|
G|------------|-10------10-|-12-----10---|-0--------|
D|-10------8--|---------10-|-12--10-12---|----------|
A|-7----------|-12---------|-10----------|----------|
E|---------12-|-13------13-|-----------3-|-8--------|
Colaboração e revisão:
  • Helon Oliveira
337 exibições
    • ½ Tom
    • A
    • Bb
    • B
    • C
    • Db
    • D
    • Eb
    • E
    • F
    • F#
    • G
    • Ab
  • Adicionar à lista

    0 comentários

    Mostrar mais comentários
    00:00 / 00:00
    outros vídeos desta música
    repetir qualidade Automático
    Outros vídeos desta música
    00:00 / 00:00
    Automático

    Cifra Club Pro

    Aproveite o Cifra Club com benefícios exclusivos e sem anúncios
    7 dias grátis
    Cifra Club Pro
    Aproveite o Cifra Club com benefícios exclusivos e sem anúncios
    7 dias grátis
    OK