Cifra Club

A Window To The Past

Harry Potter

Cifra: Principal
exibições 39.920
Tom: A#

E|-----3-----1---3-----5---6----5--3~--------------------------------|
B|-3-----------------------------------------------------------------|
G|-------------------------------------------------------------------|
D|-------------------------------------------------------------------|
A|-------------------------------------------------------------------|
E|-------------------------------------------------------------------|


E|-8----10--6----5---6-----5---3~------------------------------------|
B|-------------------------------------------------------------------|
G|-------------------------------------------------------------------|
D|-------------------------------------------------------------------|
A|-------------------------------------------------------------------|
E|-------------------------------------------------------------------|

                                 .              .

E|-8----10--6----5---6---5-3-5---10-------------6--------------------|
B|-----------------------------------8---6-4-6-------4---3-1-3~------|
G|-------------------------------------------------------------------|
D|-------------------------------------------------------------------|
A|-------------------------------------------------------------------|
E|-------------------------------------------------------------------|


E|-----3-----1---3-----5---6----5---3~-------------------------------|
B|-3-----------------------------------------------------------------|
G|-------------------------------------------------------------------|
D|-------------------------------------------------------------------|
A|-------------------------------------------------------------------|
E|-------------------------------------------------------------------|


E|-8----10--6----8---10----8---10~-----------------------------------|
B|-------------------------------------------------------------------|
G|-------------------------------------------------------------------|
D|-------------------------------------------------------------------|
A|-------------------------------------------------------------------|
E|-------------------------------------------------------------------|


                                 .               .

E|------11--10---8---10--8-6-5---8----------------6------------------|
B|-8-----------------------------------8--6-4-6--------4---3-1-3~----|
G|-------------------------------------------------------------------|
D|-------------------------------------------------------------------|
A|-------------------------------------------------------------------|
E|-------------------------------------------------------------------|

Acordes para:
    Colaboração e revisão:
    • Igor Alvaro

    0 comentários

      mostrar mais comentários

      Conseguiu tocar?

      15tocaram0ainda não

      Grave um vídeo tocando A Window To The Past e mande pra gente!

      00:00 / 00:00
      outros vídeos desta música
      repetirqualidadeautomática
      Outro vídeos desta música
        00:00 / 00:00
        automática
        OK