Cifra Club

Harry Potter Theme

Harry Potter

Cifra: Principal
exibições 309.086
Tom: F
E|----0-3p2-0-7-5-2--0-3p2---1--------|
B|--0----------------------4---0------|
G|------------------------------------|
D|------------------------------------|
A|------------------------------------|
E|------------------------------------|

E|---0-3p2-0-7-10-9-8--5-8-7-6---3-0-|
B|-0---------------------------0-----|
G|-----------------------------------|
D|-----------------------------------|
A|-----------------------------------|
E|-----------------------------------|

E|--7-7-8--7-6------7-6-----7--------|
B|-8-8-8-------7/8-------0----------
G|----------------------3------------|
D|-----------------------------------|
A|-----------------------------------|
E|-----------------------------------|

E|--7--7--10-9-8---8-7-6-------0-----|
B|-8--8-8--------9---------7/8-------|
G|-----------------------------------|
D|-----------------------------------|
A|-----------------------------------|
E|-----------------------------------|

0 comentários

    mostrar mais comentários

    Conseguiu tocar?

    152tocaram1ainda não

    Grave um vídeo tocando Harry Potter Theme e mande pra gente!

    00:00 / 00:00
    outros vídeos desta música
    repetirqualidadeautomática
    Outro vídeos desta música
      00:00 / 00:00
      automática
      OK