Enviar cifraEntrar

Harry Potter Theme

Harry Potter

Cifra: Principal
exibições 243.683
Tom: C

E|----0-3p2-0-7-5-2--0-3p2---1--------|
B|--0----------------------3---0------|
G|------------------------------------|
D|------------------------------------|
A|------------------------------------|
E|------------------------------------|


E|---0-3p2-0-7-10-9-8--5-8-7-6-----0-|
B|-0--------------------------7-7/8--|
G|-----------------------------------|
D|-----------------------------------|
A|-----------------------------------|
E|-----------------------------------|


E|--7-7-8--7-6------7-6-----7--------|
B|-8-8-8------7-7/8-------5----------
G|----------------------4------------|
D|-----------------------------------|
A|-----------------------------------|
E|-----------------------------------|


E|--7--7--10-9-8---8-7-6-------0-----|
B|-8--8-8--------9--------7-7/8------|
G|-----------------------------------|
D|-----------------------------------|
A|-----------------------------------|
E|-----------------------------------|
  • 1
  • 2
  • 3
  • 4
  • 5
  • 6
  • 7
  • 8
  • 9
  • 10
  • 11
  • 12

    0 comentários

      mostrar mais comentários

      Conseguiu tocar?

      136tocaram1ainda não

      Grave um vídeo tocando Harry Potter Theme e mande pra gente!

      00:00 / 00:00
      outros vídeos desta música
      repetirqualidadeautomática
      • automática
      Outro vídeos desta música
        00:00 / 00:00
        automática
        • automática
        Acordes para:violão e guitarra
        dificuldadeexibiçõescontribuições
        1 versão de Tab de gaitaexibiçõescontribuições
        1 versão de Guitar Proformatodownloadscontribuição
        fecharplay/pause subir/descer velocidade
          acordes
          fechar
          OK
          Feedback