Cifra Club

Tema I

Harry Potter

Cifra: Principal
exibições 61.235
Tom: G
E|-----------------------------------------------------|
B|-----------------------------------------------------|
G|-------------4-2-------------------------------------|
D|---2--5-4-2-------4~--2--5-4----4--------------------|
A|-2---------------------------5----2~-----------------|
E|-----------------------------------------------------|

E|-----------------------------------------------------|
B|-----------------------------------------------------|
G|-------------4-7--6-5~--2--5-4-3---2-----------------|
D|---2--5-4-2----------------------4---0-2~------------|
A|-2---------------------------------------------------|
E|-----------------------------------------------------|
Acordes para:
    Colaboração e revisão:
    • Cleber Silva
    • Anna Gabriella

    0 comentários

      mostrar mais comentários

      Conseguiu tocar?

      16tocaram1ainda não

      Grave um vídeo tocando Tema I e mande pra gente!

      00:00 / 00:00
      outros vídeos desta música
      repetirqualidadeautomática
      Outro vídeos desta música
        00:00 / 00:00
        automática
        OK