Only Angel

Harry Styles

Composição de: Alex Salibian / Harry Styles / Jeff Bhasker / Mitch Rowland / Ryan Nasci / Tyler Johnson
tom: E
E    F#m
G#m  A
E
E    F#m
G#m  A
     I saw this angel
E
  I really saw an angel
E     F#m/E
G#m/E A/F#
E     C#m
G#

 
E|----|-------------------------------|-------------------------------|
B|----|-------------------------------|-------------------------------|
G|4/7-|9---9-x---7--x-4-----------4/7-|9---9-x---7--x-4-----------4/7-|
D|4/7-|9---9-x---7--x-4-----------4/7-|9---9-x---7--x-4-----------4/7-|
A|2/5-|7---7-x---5--x-2-----------2/5-|7---7-x---5--x-2-----------2/5-|
E|----|-------------------------------|-------------------------------|
 
E|-------------------------------|-------------------------------|
B|9---9-----7--------------------|-------------------------------|
G|9---9-x---7--x-4-----------4-x-|----------7----------------4/7-|
D|9---9-x---7--x-4-----------4-x-|7-----7/9-7----9-----------4/7-|
A|7---7-x---5--x-2-----------2-x-|7-----7/9-5----9-----------2/5-|
E|-------------------------------|5-----5/7------7---------------|


A5 B5
   Open up your eyes, shut your mouth and see
A5       B5
That I'm still the only one who's been in love with me
A5       B5
I'm just happy getting you stuck in between my teeth
D5          B5                        A5
And there's nothing I can do about it
B5
Broke a finger knocking on your bedroom door
A5    B5
I got splinters in my knuckles crawling across the floor
A5       B5
Couldn't take you home to mother in a skirt that short
D5    B5
But I think that's what I like about it



B5    D5 E5   D5 B5
She's an angel
B5 D5 E5   D5 B5
On-ly angel
B5    D5 E5   D5 B5
She's an angel
   B5   A5    B5 D5 B5
My only angel


A5 B5
I must admit I thought I'd like to make you mine
A5   B5
As I went about my business through the warning signs
A5     B5
End up meeting in the hallway every single time
D5          B5
And there's nothing we can do about it
A5 B5
   Told it to her brother and she told it to me
E5   D5    B5
That she's gonna be an angel, just you wait and see
A5      B5
When it turns out she's a devil in between the sheets
A5          B5
And there's nothing she can do about it
N.C.
Hey, hey



B5    D5 E5   D5 B5
She's an angel
B5 D5 E5   D5 B5
On-ly angel
B5    D5 E5   D5 B5
She's an angel
   B5   A5    B5 D5 B5
My only angel
B5    D5 E5   D5 B5
She's an angel
B5 D5 E5   D5 B5
On-ly angel
B5    D5 E5   D5 B5
She's an angel
   B5   A5    B5 D5 B5
My only angel



   B7                    A5
E|-------------------------------|
B|-------------------------------|
G|------7~-----------------------|
D|--7-9-----7-7-----7-9----7-9---|
A|--------------6-------7--------|
E|-------------------------------|

B7         A5
(Ooh, ooh, ah-ah)
B7         A5
(Yeah yeah yeah yeah)
      B7                    A5
Wanna die, wanna die, wanna die tonight
      B7                    A5
Wanna die, wanna die, wanna die tonight
      B7                    A5
Wanna die, wanna die, wanna die tonight


B5    D5 E5   D5 B5
She's an angel
B5 D5 E5   D5 B5
On-ly angel
B5    D5 E5   D5 B5
She's an angel
   B5   A5    B5 D5 B5
My only angel
B5    D5 E5   D5 B5
She's an angel
B5 D5 E5   D5 B5
On-ly angel
B5    D5 E5   D5 B5
She's an angel
         B5   A5    B5 D5 B5
My-my-my only angel
Página 1 / 1

Letras e título
Acordes e artista

resetar configurações
OK