Feel Good

Hed Pe

tom: A
 Tabbed by DeftonesRC, DeftonesRC@*.
  

Tabbed by DeftonesRC@*


Verse 1

Gtr.1 (Clean)

C|-------------------12----10-
G|-12-12-12-12-12-12----12----
C|----------------------------
F|----------------------------
A|----------------------------
D|----------------------------

"Aint no more sunshine..."

Note: Hold the "B" and "E" string lightly at 
third fret and perform this task with
finger tapping.


Chorus
Gtr.1 (w/Dist)
Gtr.2 (Clean) Same riff, only clean
C|-----------------------------
G|-----------------------------
C|-----------------------------
F|-12-15-15-15-12--12-14-14-12-
A|-12-15-15-15-12--12-14-14-12-
D|-12-15-15-15-12--12-14-14-12-
"Is it hard?"


Verse 2
Gtr.1 (Clean)
C|--------------------
G|--------------------
C|-9-9--9-8--9-9--9p8-
F|-9-9--9-8--9-9--9p8-
A|--------------------
D|--------------------
"Another day, another buster wanna battle me"


Chorus 2
Gtr. 1 & 2 (w/Dist)
C|----------------------
G|----------------------
C|----------------------
F|-5-5/11--10--10/8-8-8-
A|-5-5/11--10--10/8-8-8-
D|-5-5/11--10--10/8-8-8-
"The Sky is falling and I dont care"


Outro
Gtr. 1 (w/Chorus)
C|----------------
G|-----22--23--20-
C|--19------------
F|----------------
A|----------------
D|----------------
"We just want to feel good" 
:: Ultimate Guitar Archive :: 
http://* 

Página 1 / 1

Letras e título
Acordes e artista

resetar configurações
OK