Cifra Club

Trenzinho Caipira

Heitor Villa-Lobos

Cifra: Principal (violão e guitarra)
Tom: C
       C                                                        F/C
E|-----------------------------------------3-----3--3-----------------------|
B|----5----5--5---3--------5--------5------------------6--5---6---------|
G|----------------------5----------------------------------------------------|
D|----------------------------------------------------------------------------|
A|----------------------------------------------------------------------------|
E|----------------------------------------------------------------------------|

                                               G                     C
E|--------------------------------------------5-----5--5-----3-------3----------|
B|----6----6--6---5----3----6--------6-------------------------6--------------|
G|---------------------------------------------------------------------------------|
D|---------------------------------------------------------------------------------|
A|---------------------------------------------------------------------------------|
E|---------------------------------------------------------------------------------|

      Am                      Em              F7M                        Em Am
E|----8----8---8-----7---5---7----------------5-----5----5----3---------3---------|
B|-----------------------------------5----------------------------------6---------------|
G|---------------------------------------------------------------------------------------|
D|---------------------------------------------------------------------------------------|
A|---------------------------------------------------------------------------------------|
E|---------------------------------------------------------------------------------------|

      Dm                       C                                     G
E|---------------------------------------------------------------------------------------|
B|---6----6---6----5----3----5-----------5------5----5----3---------3-------------|
G|-----------------------------------------------------------------5--------------------|
D|---------------------------------------------------------------------------------------|
A|---------------------------------------------------------------------------------------|
E|---------------------------------------------------------------------------------------|

                              C                                                      F/C
E|--------------------------------------------------------------------------------------------|
B|-----3----3---------------------------------3-------3----3-------------------------------|
G|-----------------5----4----2----------2-----------------------5----4----2--------2-----|
D|--------------------------------------------------------------------------------------------|
A|--------------------------------------------------------------------------------------------|
E|--------------------------------------------------------------------------------------------|

     C                               F/C             C
E|--------------------------------------------------------------------------------------------|
B|--3---------3----3------------------------------------------------------------------------|
G|------------------------5----4----2----------4----2-----------4---2----------4---2----|
D|--------------------------------------------------------------------------------------------|
A|--------------------------------------------------------------------------------------------|
E|--------------------------------------------------------------------------------------------|
exibições 6.649
Acordes para:
    Composição: Ferreira Gullar Colaboração e revisão:
    • Mateus Nascimento

    0 comentários

    mostrar mais comentários

    Conseguiu tocar?

    3 tocaram 1 ainda não

    Grave um vídeo tocando Trenzinho Caipira e mande pra gente!

    00:00 / 00:00
    outros vídeos desta música
    repetir qualidade Automático
    Outros vídeos desta música
    00:00 / 00:00
    Automático
    OK