Cifra Club

Me Liga

Henrique e Diego

Cifra: Principal
exibições 55.147
Tom: C
          C    G                    Am
Então me liga, pega o telefone e me liga
         F                 C
Diz pra mim que está apaixonada
            G        Am    F
E hoje eu quero te amar
E|---------------------------------------------------------------|
B|------------------------------------------5/6-6-6-5-----5------|
G|------9----7--5--4---9----7--5--7--5-----------------7---------|
D|----5---5----------5---5--------------7------------------------|
A|---------------------------------------------------------------|
E|---------------------------------------------------------------|

E|---------------------------------------------------------------|
B|------------------------------------------------1-------1-3-1--|
G|------9----7--5--4---9----7--5--7--5----------2----------------|
D|----5---5----------5---5--------------7-----3-----------2-3-2--|
A|---------------------------------------------------------------|
E|---------------------------------------------------------------|

 C            G               Am
Tem feitiço nos olhos, magia no sorriso
               F                    C
Quando vem maravilhosa, parecendo santa
          G             Am
Menina faceira, fera no cio
                     F                G
Que chega e causa overdose de tanto desejo

F                G                 Am
O gosto do seu beijo ainda está em mim
             F                C
Coração te chama a boca pede biz,
                   G              Am
Eu quero ser seu homem te fazer feliz
             F                   G
O amor é verdadeiro e já criou raiz

Refrão:
           C    G                    Am
Então me liga, pega o telefone e me liga
         F                 C
Diz pra mim que está apaixonada
          G        Am    F
E hoje eu quero te amar
         C       G                   Am
Então me liga, pega o telefone e me liga
         F                  C
Diz pra mim que está apaixonada
            G       Am   F
E hoje eu quero te amar

Tem Feitiço nos olhos...
Acordes para:

    0 comentários

      mostrar mais comentários

      Conseguiu tocar?

      6tocaram0ainda não

      Grave um vídeo tocando Me Liga e mande pra gente!

      00:00 / 00:00
      outros vídeos desta música
      repetirqualidadeautomática
      Outro vídeos desta música
        00:00 / 00:00
        automática
        OK