Enviar cifraEntrar

A Mala É Falsa ( Part. Felipe Araújo )

Henrique e Juliano

Cifra: Principal
exibições 450.170
Tom: G#
Intro: G# D#9 Fm7 C#9 D#9

Solo:

E|----------------------------------------------------|
B|----------------------------------------------------|
G|-3/5-5-5/6-3/1--3/8-8-8-8-8-8-8-8-6/5-3~------------|
D|----------------------------------------------------|
A|----------------------------------------------------|
E|----------------------------------------------------|


E|----------------------------------------------------|
B|----------------------------------------------------|
G|--3/8-8-8-8-8-8-8-8/13-12-10------------------------|
D|----------------------------------------------------|
A|----------------------------------------------------|
E|----------------------------------------------------|


E|----------------------------------------------------|
B|----------------------------------------------------|
G|-8h10-10-8-8h10-10-10-10-8-6-8-6~-------------------|
D|----------------------------------------------------|
A|----------------------------------------------------|
E|----------------------------------------------------|


E|----------------------------------------------------|
B|----------------------------------------------------|
G|-3/6-6-6-6/8-8-8-8/10-10-10-------------------------|
D|----------------------------------------------------|
A|----------------------------------------------------|
E|----------------------------------------------------|


Fm7                             C#9
É, agora tá com tempo pra me escutar
                             D#9
agora diz que ama e que vai mudar
                                     C
eu sei que a cena é forte, vai doer agora
                                C#9
arrume minha mala, eu tô caindo fora

C#9                        Fm7
você não percebeu, mas esfriou
          Fm       D#/G    G#
caiu na rotina, você descuidou
                           D#9
eu só queria um pouco de carinho
         C#9            D#9    G#
fica tranquila, amor, eu tô fingindo

                 G#
A mala é falsa amor
                             D#9
engole o choro, embora eu não vou
                           Fm
agora vê se aprende a dar valor
                           C#9    D#9
matar minha sede de fazer amor uô uô

                 G#
A mala é falsa amor
                             D#9
engole o choro, embora eu não vou
                           Fm
agora vê se aprende a dar valor
                           C#9    D#9 G#
matar minha sede de fazer amor uô uô uô


E|-----------------------------------------------------|
B|-----------------------------------------------------|
G|-3/8-8-8-8-8-8-8-8-6/5-3~-3/8-8-8-8-8-8-8-8/13-12-10-|
D|-----------------------------------------------------|
A|-----------------------------------------------------|
E|-----------------------------------------------------|


E|-----------------------------------------------------|
B|-----------------------------------------------------|
G|-8h10-10-8-8h10-10-10-10-8-6-8-6~-3/6-6-6/8-8-8/13~--|
D|-----------------------------------------------------|
A|-----------------------------------------------------|
E|-----------------------------------------------------|
  • 1
  • 2
  • 3
  • 4
  • 5
  • 6
  • 7
  • 8
  • 9
  • 10
  • 11
  • 12
    Acordes para:

      0 comentários

        mostrar mais comentários

        Conseguiu tocar?

        10tocaram6ainda não

        Grave um vídeo tocando A Mala É Falsa ( Part. Felipe Araújo ) e mande pra gente!

        00:00 / 00:00
        outros vídeos desta música
        repetirqualidadeautomática
        • automática
        Outro vídeos desta música
          00:00 / 00:00
          automática
          • automática
          Acordes para:violão e guitarra
          dificuldadeexibiçõescontribuições
          fecharplay/pause subir/descer velocidade
            Acordes para:violão e guitarra
            acordes
            fechar
            OK