Enviar cifraEntrar

Meu Nome É Solidão

Henrique e Juliano

Cifra: Principal
exibições 78.021
Tom: G
Intro: Em

Solo:

E|--------------------------|
B|---5-7-7/8---8/10-7h8p7-5-|
G|-4------------------------|
D|--------------------------|
A|--------------------------|
E|--------------------------|


Em
Peito machucado, lágrimas caídas pelo chão
   C9
Prazer, fui mais um enganado e o meu nome é solidão
    G
E o que fazer com a falta que você deixou?
    Em                                      D
E o que fazer com o resto desse louco amor?

  Em
E dentro do meu quarto vejo a lua da janela
  C9
Parece meio triste, apagada, olhando pra mim
       G
Ela também vai sentir falta de nós dois
    Em                    C
Ela já sente falta de nós dois

Refrão:

Em
E nessa hora o palhaço sai de cena
C
E cada um fica com seu problema
G
E você tenta descobrir, então
            D
Se ainda me ama ou não, se ainda me ama ou não

Em
E nessa hora o palhaço sai de cena
C
E cada um fica com seu problema
G
E você tenta descobrir, então
            D                           Em
Se ainda me ama ou não, se é verdade ou não

Solo: Em  C9  G  D


E|---------------------------------------------------------------------------------------| |-------|
B|---8-7-7h8---5-7-7h8p7-5---------8-7-7h8-------8-10-10/12---8-10-12-12-10-8-10---6/8-7-| |-----5-|
G|-4-----------------------7-5---4-----------7-9-----------------------------------------| |-2h4---|
D|---------------------------------------------------------------------------------------| |-------|
A|---------------------------------------------------------------------------------------| |-------|
E|---------------------------------------------------------------------------------------| |-------|


Em
Peito machucado, lágrimas caídas pelo chão
   C9
Prazer, fui mais um enganado e o meu nome é solidão
    G
E o que fazer com a falta que você deixou?
    Em                                      D
E o que fazer com o resto desse louco amor?

  Em
E dentro do meu quarto vejo a lua da janela
  C9
Parece meio triste, apagada, olhando pra mim
       G
Ela também vai sentir falta de nós dois
    Em                    C
Ela já sente falta de nós dois

Refrão:

Em
E nessa hora o palhaço sai de cena
C
E cada um fica com seu problema
G
E você tenta descobrir, então
            D
Se ainda me ama ou não, se ainda me ama ou não

Em
E nessa hora o palhaço sai de cena
C
E cada um fica com seu problema
G
E você tenta descobrir, então
            D                           Em
Se ainda me ama ou não, se é verdade ou não


E|------------------------------------------------------------|
B|---8-7-7h8---5-7-7h8p7-5---------8-7-7h8-------8-8/10-10/12-|
G|-4-----------------------7-5---4-----------7h9--------------|
D|------------------------------------------------------------|
A|------------------------------------------------------------| 
E|------------------------------------------------------------|


Refrão:

Em
E nessa hora o palhaço sai de cena
C
E cada um fica com seu problema
G
E você tenta descobrir, então
            D
Se ainda me ama ou não, se ainda me ama ou não

Em
E nessa hora o palhaço sai de cena
C
E cada um fica com seu problema
G
E você tenta descobrir, então
            D                              Em
Se ainda me ama ou não, se ainda me ama ou não

Solo final: Em  C9  G  D


E|-----------------------------------------|
B|---8-7-7h8---5-7-7h8p7-5---------8-7-7h8-|
G|-4-----------------------7-5---4---------|
D|-----------------------------------------|
A|-----------------------------------------|
E|-----------------------------------------|


              G   D
... me ama ou não


E|----------------------------| |-------|
B|-8-10-12-12-10-8-10---6/8-7-| |-----5-|
G|----------------------------| |-2h4---|
D|----------------------------| |-------|
A|----------------------------| |-------|
E|----------------------------| |-------|


                    Em
... se é verdade ou não
  • 1
  • 2
  • 3
  • 4
  • 5
  • 6
  • 7
  • 8
  • 9
  • 10
  • 11
  • 12

    0 comentários

      mostrar mais comentários

      Conseguiu tocar?

      13tocaram0ainda não

      Grave um vídeo tocando Meu Nome É Solidão e mande pra gente!

      00:00 / 00:00
      outros vídeos desta música
      repetirqualidadeautomática
      • automática
      Outro vídeos desta música
        00:00 / 00:00
        automática
        • automática
        Acordes para:violão e guitarra
        dificuldadeexibiçõescontribuições
        fecharplay/pause subir/descer velocidade
          acordes
          fechar
          OK
          Feedback