Cifra Club

Aprenda

Eterno Replay

Henrique e Juliano

Cifra: Principal (violão e guitarra)
Já pensou em usar uma coleção de roupas do Cifra Club? Responda as perguntas abaixo e nos ajude nessa missão! →
tom: Em
[Intro] Em7  G  D9  A9

E|------------------------------------------|
B|-7h8-7----------------7h8-7---------------|
G|-7---7-7-7---7-7------7---7-7-7---7-------|
D|-------7-7h9-7-7-7/9--------7-7h9-7-7/9-7-|
A|------------------------------------7/9-7-|
E|------------------------------------------|
E|------------------------------------------|

[Primeira Parte]

Em7
    Ultimamente pra eu beber com segurança
G
  Tenho que ir pra algum barzinho afastado
D9
   Onde sinal de celular não me alcança
A9
   E o GPS não me leva pro teu quarto

[Pré-Refrão]

Em7
   Mas se eu não te procuro
            G
Você sempre acha um jeito de me achar
  D9
E eu não vim com um dispositivo
           A9
De te recusar

[Refrão]

                 Em7
A gente tá num eterno replay
                  G
A gente é mais atual do que ex
              D9
Só de última vez na sua cama
                 A9
Contei quatro só essa semana

                 Em7
A gente tá num eterno replay
                  G
A gente é mais atual do que ex
              D9
Só de última vez na sua cama
                 A9
Contei quatro só essa semana
                       Em7  
Se eu não chamo "cê" chama

( G9  D9  A9  )

E|------------------------------------------|
B|-7h8-7----------------7h8-7---------------|
G|-7---7-7-7---7-7------7---7-7-7---7-------|
D|-------7-7h9-7-7-7/9--------7-7h9-7-7/9-7-|
A|------------------------------------7/9-7-|
E|------------------------------------------|
E|------------------------------------------|

[Primeira Parte]

Em7
    Ultimamente pra eu beber com segurança
G
  Tenho que ir pra algum barzinho afastado
D9
   Onde sinal de celular não me alcança
A9
   E o GPS não me leva pro teu quarto

[Pré-Refrão]

Em7
   Mas se eu não te procuro
            G
Você sempre acha um jeito de me achar
  D9
E eu não vim com um dispositivo
           A9
De te recusar

[Refrão]

                 Em7
A gente tá num eterno replay
                  G
A gente é mais atual do que ex
              D9
Só de última vez na sua cama
                 A9
Contei quatro só essa semana

                 Em7
A gente tá num eterno replay
                  G
A gente é mais atual do que ex
              D9
Só de última vez na sua cama
                 A9
Contei quatro só essa semana
                       Em7  
Se eu não chamo "cê" chama

( G9  D9  A9  )

E|------------------------------------------|
B|-7h8-7----------------7h8-7---------------|
G|-7---7-7-7---7-7------7---7-7-7---7-------|
D|-------7-7h9-7-7-7/9--------7-7h9-7-7/9-7-|
A|------------------------------------7/9-7-|
E|------------------------------------------|
E|------------------------------------------|

                 Em7
A gente tá num eterno replay
                  G
A gente é mais atual do que ex
              D9
Só de última vez na sua cama
                 A9
Contei quatro só essa semana

                 Em7
A gente tá num eterno replay
                  G
A gente é mais atual do que ex
              D9
Só de última vez na sua cama
                 A9
Contei quatro só essa semana
                       Em7  
Se eu não chamo "cê" chama

[Final] G9  D9  A9 

E|------------------------------------------|
B|-7h8-7----------------7h8-7---------------|
G|-7---7-7-7---7-7------7---7-7-7---7-------|
D|-------7-7h9-7-7-7/9--------7-7h9-7-7/9-7-|
A|------------------------------------7/9-7-|
E|------------------------------------------|
E|------------------------------------------|
Composição de Marcello Henrique / Bruno Sucesso / Elan Rúbio / Junior Pepato
Colaboração e revisão:
  • Thiago Almeida
  • Raffael Uascar
  • Manoel Neto
1.310 exibições
    • ½ Tom
    • Am
    • Bbm
    • Bm
    • Cm
    • C#m
    • Dm
    • Ebm
    • Em
    • Fm
    • F#m
    • Gm
    • G#m
  • Adicionar à lista

    0 comentários

    Ver todos os comentários
    00:00 / 00:00
    Outros vídeos desta música
    Repetir Qualidade Automático
    Outros vídeos desta música
    00:00 / 00:00
    Automático

    Cifra Club Pro

    Aproveite o Cifra Club com benefícios exclusivos e sem anúncios
    Cifra Club Pro
    Aproveite o Cifra Club com benefícios exclusivos e sem anúncios
    OK