Cifra Club

Aprenda

Liberdade Provisória

Henrique e Juliano

Cifra: Versão 4 (violão e guitarra)
Quer fazer aulas de música com a gente? Responda essas perguntas
e nos ajude nesse projeto! →
tom: Db (forma dos acordes no tom de C) Capotraste na 1ª casa
[Intro]

E|------------------------------------------|
B|--------5-5/6-----6/5---------------------|
G|--3/7-7---------------7-7-5---------------|
D|----------------------------7-------------|
A|------------------------------------------|
E|------------------------------------------|

E|------------------------------------------|
B|--1/3-3-3-3-3-3--1-1h3p1------------------|
G|------------------------------------------|
D|--2/3-3-3-3-3-3--2-2----------------------|
A|------------------------------------------|
E|------------------------------------------|

E|--1/3-3--1-1h3p1--0-----------------------|
B|---------------------3-3-1-1----1/3-------|
G|--2/4-4--2-2------0----------2------------|
D|---------------------3-3-2-2--------------|
A|------------------------------------------|
E|------------------------------------------|

[Primeira Parte Dedilhado]

   Dm        Am        C         G
E|-------2---------0---------0---------2----|
B|-----3---------1---------1---------2------|
G|---2---------2---------0---------0--------|
D|-0----------------------------------------|
A|-----------0---------3--------------------|
E|-------------------------------3----------|

     Dm
No início foi assim
      Am
Terminou tá terminado
                 C
Cada um pro seu lado
               G
Não precisa ligar mais
           Dm
Só que foi eu quem terminou
               Am
E quem foi largado não espera
       C
Eu segui minha vida
             G
Até ela começar seguir a dela

[Pré-Refrão]

                 Dm
E do meio pro final
                       Am
Eu só ia pra onde ela tava
               C
Cada beijo no rosto que outra
                        G
Boca dava eu morria de raiva
                 Dm
E ela tava mais linda
                   Am
Cada vez que eu olhava
              C
O ciúmes não tava batendo
               G
Tava dando porrada

[Refrão]

                      Dm
E eu implorei pra voltar
                  Am
E ela me matou na unha
                      C
Disse que eu tava solteiro
                           G
Eu tava solteiro porra nenhuma
                 Dm
Implorei pra voltar
                Am
Não me manda embora
                  C
Sou preso da sua vida
                       G
Era só liberdade provisória
                           Dm
Vai ter que me aceitar de volta

( Am  C  G )

[Solo] Dm  Am  C  G

[Pré-Refrão]

                 Dm
E do meio pro final
                       Am
Eu só ia pra onde ela tava
               C
Cada beijo no rosto que outra
                        G
Boca dava eu morria de raiva
                 Dm
E ela tava mais linda
                   Am
Cada vez que eu olhava
              C
O ciúmes não tava batendo
               G
Tava dando porrada

[Refrão]

                      Dm
E eu implorei pra voltar
                  Am
E ela me matou na unha
                      C
Disse que eu tava solteiro
                           G
Eu tava solteiro porra nenhuma
                 Dm
Implorei pra voltar
                Am
Não me manda embora
                  C
Sou preso da sua vida
                       G
Era só liberdade provisória
                           Dm
Vai ter que me aceitar de volta

( Am  C  G )

                      Dm
E eu implorei pra voltar
                  Am
E ela me matou na unha
                      C
Disse que eu tava solteiro
                           G
Eu tava solteiro porra nenhuma
                 Dm
Implorei pra voltar
                Am
Não me manda embora
                  C
Sou preso da sua vida
                       G
Era só liberdade provisória
                           Dm
Vai ter que me aceitar de volta

( Am  C  G )

                           Dm
Vai ter que me aceitar de volta

[Final] Am  C  G  Dm
Composição de Elvis Elan / Henrique Casttro
Colaboração e revisão:
  • Pato Cinza
506 exibições
  • Simplificar cifra
    • ½ Tom
    • A
    • Bb
    • B
    • C
    • Db
    • D
    • Eb
    • E
    • F
    • F#
    • G
    • Ab
  • Adicionar à lista

    0 comentários

    Ver todos os comentários
    00:00 / 00:00
    Outros vídeos desta música
    Repetir Qualidade Automático
    Outros vídeos desta música
    00:00 / 00:00
    Automático
    Capítulos
    • Abertura
    • Dicas Iniciais
    • Acordes da Música
    • Dedilhado
    • Ensinando Ritmo da Música
    • Tocando Trecho da Música
    • Encerramento

    Cifra Club Pro

    Aproveite o Cifra Club com benefícios exclusivos e sem anúncios
    Cifra Club Pro
    Aproveite o Cifra Club com benefícios exclusivos e sem anúncios
    OK