Cifra Club

Maquiagem Não Disfarça Tristeza

Henrique e Juliano

Cifra: Principal
exibições 11.482
Tom: C
[Intro]

Parte 1 de 2

                F                G
E|-----------------------------------|
B|-----------------3h5-5-5-3-1-1h3~--|
G|--X-2-4-4/5------------------------|
D|--X-----------3~-------------------|
A|--X--------------------------------|
E|--X--------------------------------|


Parte 2 de 2

            Am
E|-----------------------------------|
B|---------------/5-5-5-3-1-1--------|
G|--2-4-4/5-5----/5-5-5-4-2-2--------|
D|-----------------------------------|
A|-----------------------------------|
E|-----------------------------------|


      F
Pera aí
                          G
Quem ela tá tentando enganar

Mostrando esse sorriso falso
Am
  Só pra disfarçar
No meio da boate toda produzida
  F
Pra me impressionar
G                               Am
  Mas quem ela tá tentando enganar

           F
Foi só me ver
                           G
Sorriso sumiu, a postura caiu
                                Am
Veio me contar que tava arrependida

Mas não era a vida que você queria?
             F
Tô vendo que aprendeu
               G
Foi tarde mas percebeu

     F                    G
Que não tem meu beijo na boca do copo
 Am
Não tem meu colo na perna da mesa
     F
Que hoje o choro borra
   G               Am
O lápis de olho é certeza
     F                    G
Que não tem meu beijo na boca do copo
 Am
Não tem meu colo na perna da mesa
     F
Que hoje o choro borra
   G               Am
O lápis de olho é certeza

F                G            Am
  Maquiagem não disfarça tristeza
F                G            Am
  Maquiagem não disfarça tristeza

Parte 1 de 2

                F                G
E|-----------------------------------|
B|-----------------3h5-5-5-3-1-1h3~--|
G|--X-2-4-4/5------------------------|
D|--X-----------3~-------------------|
A|--X--------------------------------|
E|--X--------------------------------|


Parte 2 de 2

            Am
E|-----------------------------------|
B|---------------/5-5-5-3-1-1--------|
G|--2-4-4/5-5----/5-5-5-4-2-2--------|
D|-----------------------------------|
A|-----------------------------------|
E|-----------------------------------|


             v
E foi só me ver
                           G
Sorriso sumiu, a postura caiu
                                Am
Veio me contar que tava arrependida

Mas não era a vida que você queria?
             F
Tô vendo que aprendeu
           G
Foi tarde mas percebeu

     F                    G
Que não tem meu beijo na boca do copo
 Am
Não tem meu colo na perna da mesa
     F
Que hoje o choro borra
   G               Am
O lápis de olho é certeza
     F                    G
Que não tem meu beijo na boca do copo
 Am
Não tem meu colo na perna da mesa
     F
Que hoje o choro borra
   G               Am
O lápis de olho é certeza

F                G            Am
  Maquiagem não disfarça tristeza
F                G            Am
  Maquiagem não disfarça tristeza

Parte 1 de 2

                F                G
E|-----------------------------------|
B|-----------------3h5-5-5-3-1-1h3~--|
G|--X-2-4-4/5------------------------|
D|--X-----------3~-------------------|
A|--X--------------------------------|
E|--X--------------------------------|


Parte 2 de 2

            Am
E|-----------------------------------|
B|---------------/5-5-5-3-1-1--------|
G|--2-4-4/5-5----/5-5-5-4-2-2--------|
D|-----------------------------------|
A|-----------------------------------|
E|-----------------------------------|


F                G            Am
  Maquiagem não disfarça tristeza
Acordes para:
    Colaboração e revisão:
    • Lucas Kappaun
    • Jose Junior
    • Guilherme Janderson

    0 comentários

      mostrar mais comentários

      Conseguiu tocar?

      1tocaram0ainda não

      Grave um vídeo tocando Maquiagem Não Disfarça Tristeza e mande pra gente!

      00:00 / 00:00
      outros vídeos desta música
      repetirqualidadeautomática
      Outro vídeos desta música
        00:00 / 00:00
        automática
        OK