Não Tenho Coragem

Henrique e Juliano

Composição de: Lari Ferreira
tom: Bb
[Intro] Cm7  Eb

E|------------------------------------------|
B|-------3-6-8-6/8--8\6-4-3-4--6/8-8\6-4-3-4|
G|-2h3-5------------------------------------|
D|------------------------------------------|
A|------------------------------------------|
E|------------------------------------------|

[Primeira Parte]

Bb
Eu vou sair
                         F
Tá rolando uma festinha louca

3 km daqui
                             Cm7
Dorme bem que não tem nem perigo de eu te ligar
                      Eb
Hoje eu só paro de beber

Quando eu não tiver mais dando conta
           Bb
Nem de conversar

[Pré-Refrão]

Vou ficar com a primeira estranha
        F
Que quiser e topar
                 Cm7
Vou abrir outra roupa

Beijar outra boca

Vou dormir com ela
       Eb
Vou fazer amor
Ebm
    Como se fosse o último da vida dela

[Refrão]

   Cm7                        Eb
E mesmo que eu lembre da sua cara
                         Bb
E que eu escute o seu gemido
         
Não vai ser real
         F
Não vai ser você que vai tá comigo
   Cm7                          Eb
E mesmo que essa estranha só me use
                   Bb
Sem nenhuma intimidade
             F                 
Quero ser objeto pra matar vontade
    Cm7 
Só tem um detalhe
                               Eb
Quem é que vai dar vida pra esse personagem

Porque ainda não tenho coragem

[Solo] Cm7  Eb  Bb  F  Cm7  Eb

E|------------------------------------------|
B|-------3-6-8-6/8--8\6-4-3-4--6/8-8\6-4-3-4|
G|-2h3-5------------------------------------|
D|------------------------------------------|
A|------------------------------------------|
E|------------------------------------------|

E|------------------------------------------|
B|-4/6\3--3/4-4/6-6-6-6\1-------------------|
G|------------------------------------------|
D|------------------------------------------|
A|------------------------------------------|
E|------------------------------------------|

E|------------------------------------------|
B|-----3-6-8-6/8--8\6-4-3-4--6/8-8\6-4-3-4--|
G|-3-5--------------------------------------|
D|------------------------------------------|
A|------------------------------------------|
E|------------------------------------------|

[Pré-Refrão]
 
  Bb
E eu vou ficar com a primeira estranha
        F
Que quiser e topar
                 Cm7
Vou abrir outra roupa

Beijar outra boca

Vou dormir com ela
       Eb
Vou fazer amor
Ebm
    Como se fosse o último da vida dela

[Refrão]

   Cm7                        Eb
E mesmo que eu lembre da sua cara
                         Bb
E que eu escute o seu gemido
         
Não vai ser real
         F
Não vai ser você que vai tá comigo
   Cm7                          Eb
E mesmo que essa estranha só me use
                   Bb
Sem nenhuma intimidade
             F                 
Quero ser objeto pra matar vontade
    Cm7 
Só tem um detalhe
                               Eb
Quem é que vai dar vida pra esse personagem

Porque ainda não tenho coragem

   Cm7                    Bb/D  Eb
E mesmo que eu lembre da sua   cara
                         Bb
E que eu escute o seu gemido
         
Não vai ser real
         F
Não vai ser você que vai tá comigo
   Cm7                          Eb
E mesmo que essa estranha só me use
                   Bb
Sem nenhuma intimidade
             F                 
Quero ser objeto pra matar vontade
    Cm7 
Só tem um detalhe
                               Eb
Quem é que vai dar vida pra esse personagem
                              Bb
Porque ainda não tenho coragem
Página 1 / 1

Letras e título
Acordes e artista

resetar configurações
OK