Cifra Club

Nasci Pra Te Amar

Henrique e Juliano

Cifra: Principal
exibições 49.716
Tom: D
Intro: D  Bm  F#m  G  Em  A
E|-5---------------------------------------------3-2------------------5\-|
B|---3-3-3---3-3-3-3/5-5-2-2h3---3p2-0----------------3-3/5-----2-3-5----|
G|-------------------------------------2-0--2h4---------------2----------|
D|-----------------------------------------------------------------------|
A|-----------------------------------------------------------------------|
E|-----------------------------------------------------------------------|

Bm
Eu nunca fui de escrever cartas nem mandar flores
G
Eu que já tive em minha vida milhões de amores
D                                             A
É a primeira vez que eu não sinto meus pés no chão
Bm
Fiquei perdido quando vi o seu olhar no meu
G
Quase que fiquei louco querendo um beijo seu
D                                       A
Senti dentro do peito bater forte o coração

        Bm   F#m    G
Mas era cedo pra me declarar
           D            A
Fiquei com medo de você duvidar

Refrão:
D
No outro dia tive a sorte, te encontrei de novo
Bm                                 F#m
Falei desse amor que é lindo mas é perigoso
G                        Em                A
Quando se ama alguém que não quer se apaixonar
D
Mas vi você sorrindo e o medo desapareceu
Bm                           F#m
Notei que o amor da sua vida era eu
G                      Em             A
Então te dei um beijo, fiz você acreditar
       G     A       Bm  F#m G Em A
Que eu nasci pra te amar

Solo:
E|--------------------------3-2------------------5\-|
B|-3-3/5-3--3p2-0----------------3-3/5-----2-3-5----|
G|----------------2-0--2h4---------------2----------|
D|--------------------------------------------------|
A|--------------------------------------------------|
E|--------------------------------------------------|

        Bm   F#m    G
Mas era cedo pra me declarar
           D            A
Fiquei com medo de você duvidar

Refrão:
D
No outro dia tive a sorte, te encontrei de novo
Bm                                 F#m
Falei desse amor que é lindo mas é perigoso
G                        Em                A
Quando se ama alguém que não quer se apaixonar
D
Mas vi você sorrindo e o medo desapareceu
Bm                           F#m
Notei que o amor da sua vida era eu
G                      Em             
Então te dei um beijo, fiz você acreditar

( A G A Bm F#m G )

E|--------------3/5-|
B|-3-3p2------------|
G|-------4-2--------|
D|-----------2------|
A|------------------|
E|------------------|

Refrão:
D
No outro dia tive a sorte, te encontrei de novo
Bm                                 F#m
Falei desse amor que é lindo mas é perigoso
G                        Em                A
Quando se ama alguém que não quer se apaixonar
D
Mas vi você sorrindo e o medo desapareceu
Bm                           F#m
Notei que o amor da sua vida era eu
G                      Em             A
Então te dei um beijo, fiz você acreditar
       G     A       Bm
Que eu nasci pra te amar
Solo final:
E|-------------------|
B|-3-2-0---------2-0-|
G|--------2-2--------|
D|------------4------|
A|-------------------|
E|-------------------|
Acordes para:

    0 comentários

      mostrar mais comentários

      Conseguiu tocar?

      10tocaram0ainda não

      Grave um vídeo tocando Nasci Pra Te Amar e mande pra gente!

      00:00 / 00:00
      outros vídeos desta música
      repetirqualidadeautomática
      Outro vídeos desta música
        00:00 / 00:00
        automática
        OK