Cifra Club

Tá Namorando e Me Querendo

Henrique e Juliano

Cifra: Principal
exibições 274.614
Tom: A
Intro: A E Bm D A E Bm D

Solo:
E|--------12-12-10-9-10-9-7-5-7-7-7-5-7-9-9/10-9-7-5---5-7-9-9/10-9-10-9-|
B|---------------------------------------------------7-------------------|
G|-9-9-9-----------------------------------------------------------------|
D|-----------------------------------------------------------------------|
A|-----------------------------------------------------------------------|
E|-----------------------------------------------------------------------|

E|-12-12-10-9-10-9-7-5-7-7-7-5-7-9-9/10-9-7-5----------10-10-10-10-|
B|--------------------------------------------7--------------------|
G|----------------------------------------------7-6-7--------------|
D|-----------------------------------------------------------------|
A|-----------------------------------------------------------------|
E|-----------------------------------------------------------------|
    A                         E
Pra quê foi se envolver com alguém,
               Bm                    D
Se todo mundo ainda sabe que você me ama?
    A              E                    Bm
Tá escrito no seu olhar, tentando disfarçar,
                          D
Mas quando vai dormir, me chama.
              F#m
Vou dizer que não fiquei surpreso

Quando mandou sua amiga
   C#m
Me dar seu telefone na balada aquele dia.
 Bm
Agora é minha vez de dar o troco em você,
F#m                    E
Vou telefonar pra te dizer:

Refrão 2x:
         A
Será que eu que sou bandido,
     E
Mentiroso e mulherengo?
Bm                    D
Olha pra você, tá namorando e me querendo.
A                    E
Tô ligando pra você, mas não é pra te pegar,
Bm               D (E)
É pra te dizer, assim não vai rolar.

Solo: ( A E Bm D A E Bm D )

E|--------12-12-10-9-10-9-7-5-7-7-7-5-7-9-9/10-9-7-5---5-7-9-9/10-9-10-9-|
B|---------------------------------------------------7-------------------|
G|-9-9-9-----------------------------------------------------------------|
D|-----------------------------------------------------------------------|
A|-----------------------------------------------------------------------|
E|-----------------------------------------------------------------------|

E|-12-12-10-9-10-9-7-5-7-7-7-5-7-9-9/10-9-7-5----------10-10-10-10-|
B|--------------------------------------------7--------------------|
G|----------------------------------------------7-6-7--------------|
D|-----------------------------------------------------------------|
A|-----------------------------------------------------------------|
E|-----------------------------------------------------------------|

                 F#m
Eu vou dizer que não fiquei surpreso

Quando mandou sua amiga
   C#m
Me dar seu telefone na balada aquele dia.
 Bm
Agora é minha vez de dar o troco em você,
F#m                    E
Vou telefonar pra te dizer:

Refrão 4x:
         A
Será que eu que sou bandido,
     E
Mentiroso e mulherengo?
Bm                    D
Olha pra você, tá namorando e me querendo.
A                    E
Tô ligando pra você, mas não é pra te pegar,
Bm               D (E)
É pra te dizer, assim não vai rolar.

Solo: ( A E Bm D A )

E|--------12-12-10-9-10-9-7-5-7-7-7-5-7-9-9/10-9-7-5----------10-10-10-10-|
B|---------------------------------------------------7--------------------|
G|-9-9-9-----------------------------------------------7-6-7--------------|
D|------------------------------------------------------------------------|
A|------------------------------------------------------------------------|
E|------------------------------------------------------------------------|

0 comentários

    mostrar mais comentários

    Conseguiu tocar?

    33tocaram0ainda não

    Grave um vídeo tocando Tá Namorando e Me Querendo e mande pra gente!

    00:00 / 00:00
    outros vídeos desta música
    repetirqualidadeautomática
    Outro vídeos desta música
      00:00 / 00:00
      automática
      OK