Cifra Club

Cantaloupe Island

Herbie Hancock

Cifra: Principal (violão e guitarra)
tom: Ab
(intro)

E|-------------------------------------------------
B|--1-3-1/4-3-1--1-3-1/4-3-1--1-3-1/4-3-1--1-3-1/4-
G|--1-3-1/5-3-1--1-3-1/5-3-1--1-3-1/5-3-1--1-3-1/5-
D|-------------------------------------------------
A|-------------------------------------------------
E|-------------------------------------------------

                     Fm7                     Db7/9
E|-----------------------------------------------------------
B|-----------------------------------------------------------
G|--------------------5-------------------------------5------
D|--------6-8-8~--6-8---------------------6-8-8~--6-8--------
A|--8-8-----------------6-8~~-------8-8-----------------6-8~-
E|-----------------------------------------------------------

                 Dm7/9
E|------------------------------------
B|------4-----4-----------4-----4-----
G|--4/5---4/5---4--4--4/5---4/5---4-4-
D|------------------------------------
A|------------------------------------
E|------------------------------------

(repete intro)
                 Fm7                                       Db7/9
E|-------------------------------------------------------------------------
B|----------9-11-11~--9-11-13----------------------9-11-11~--9-11-13-------
G|--10-10---------------------8-10~~-------10-10---------------------8-10~-
D|-------------------------------------------------------------------------
A|-------------------------------------------------------------------------
E|-------------------------------------------------------------------------

                        Dm7/9
E|--------12-------12---------------12-------12----------
B|--12/13----12/13------------12/13----12/13-------------
G|--------------------10--10--------------------10--10~~-
D|-------------------------------------------------------
A|-------------------------------------------------------
E|-------------------------------------------------------

(solo)
E|------------------6-8-6----------------------------------6-8-6-------------------
B|-------------6-8-9-----9-8-6------------------------6-8-9-----9-8-6--------------
G|--------5-7-8---------------8-7-5--------------5-7-8---------------8-7-5---------
D|---5-6-8-------------------------8-6-5----5-6-8-------------------------8-6-5----
A|--8-----------------------------------8~-8-----------------------------------8~~-
E|---------------------------------------------------------------------------------

E|--------------------4-6-7-6-4---------------------------------------4-6-7-6-4----------------------
B|---------------4-6-7---------7-6-4-----------------------------4-6-7-----------7-6-4---------------
G|----------3-4-6-------------------6-4-3-------------------3-4-6---------------------6-4-3----------
D|-----3-4-6-----------------------------6-4-3---------3-4-6-------------------------------6-4-3-----
A|--4-6----------------------------------------6-4~-4-6-----------------------------------------6-4~-
E|---------------------------------------------------------------------------------------------------

E|--------------------5-7-8-7-5---------------------------------5-7-8-7-5----------------------
B|---------------5-6-8---------8-6-5-----------------------5-6-8---------8-6-5-----------------
G|----------4-5-7-------------------7-5-4-------------4-5-7--------------------7-5-4-----------
D|-------5-7-----------------------------7-5-------5-7------------------------------7-5--------
A|--5-7-8-----------------------------------8-7-5~-------------------------------------8-7-5~~-
E|---------------------------------------------------------------------------------------------
00:00 / 00:00
Outros vídeos desta música
Repetir
Outros vídeos desta música
Composição de Herbie Hancock
Colaboração e revisão:
  • Danny Leite
  • Luccas Mattos
11.855 exibições
    • ½ Tom
    • A
    • Bb
    • B
    • C
    • Db
    • D
    • Eb
    • E
    • F
    • F#
    • G
    • Ab
  • Adicionar à lista

    0 comentários

    Ver todos os comentários

    Conseguiu tocar?

    0 Tocaram 0 Ainda não

    Grave um vídeo tocando Cantaloupe Island e nos envie!

    Entre para oCifra Club PRO

    Tenha acesso a benefícios exclusivos no App e no Site

    • Chega de anúncios

    • Prioridade de compra em lançamentos

    • Mais recursos no app do Afinador

    • Atendimento Prioritário

    • Descontos nos produtos Cifra Club

    • Ajude a produzir mais conteúdo

    00:00 / 00:00

    Cifra Club Pro

    Aproveite o Cifra Club com benefícios exclusivos e sem anúncios
    Cifra Club Pro
    Aproveite o Cifra Club com benefícios exclusivos e sem anúncios
    OK