Cifra Club

Aprenda

La Sirena Varada

Héroes Del Silencio

Cifra: Principal (violão e guitarra)
tom: A
Intro:

E|-----------------------------------------------------------------0----|
B|----------------------------------------------------------------------|
G|--------6--------7--6-------------6----------6-------7-6------6---6---|
D|---4-4-----4--4-------4--4-6--6h7---7-----7-----7-7-------7-7-------7-|
A|----------------------------------------0-----------------------------|
E|----------------------------------------------------------------------|

E|------------------------------------------7----7--7---7---|
B|------------------------------------------9----9--9---9---|
G|--------6--4--6-----------9-----9---------9----7--7---9---|
D|--0--7-----------7-----9-----9-----9---0--7----7--7---7---|
A|--------------------7-------------------------------------|
E|----------------------------------------------------------|

Verso:

F#m
  Y me he enredado siempre entre algas
E
  maraña contra los dedos
F#m
  cierras la madeja
E
  con el fastidio del destino
         D
y el mordisco lo dan otros
  F#m
encías ensangrentadas
    D                      E
miradas de criminales, a grandes rasgos
         F#m
podrías ser tú

Ponte:

F#m

Verso:
F#m
Echar el ancla a babor
     E
y de un extremo la argolla
        F#m
y del otro tu corazón
          E
mientras tanto, te sangra
         D
y el mendigo siempre a tu lado
    F#m
tu compañero de viaje
     D
cuando las estrellas se apaguen
   E                          F#m
tarde o temprano, también vendrás tú

Coro:

A
  Y duerme un poco más
     E
los párpados no aguantan ya
         F#m
luego están las decepciones
            D                    A
cuando el cierzo no parece perdonar

sirena, vuelve al mar
   E
varada por la realidad
F#m
  o de alucinaciones
            D                  E     D
cuando el cielo no parece escuchar

Verso:

F#m
  Dedicarte un sueño
   E
cerrar los ojos
            F#m
y sentir oscuridad inmensa
                 E
entregado a una luz,
              D
como un laberinto de incertidumbre
    F#m
esquivas la pesadilla
      D
y sobrevolar el cansancio
     E                       F#m
y en un instante, en tierra otra vez

A                           C#m
  El miedo a traspasar la frontera
        F#m           C#m
de los nombres, como un extraño
Bm                     E
   dibuja la espiral de la derrota
F#m
   y oscurece tantos halagos.
 Bm      E           F#m    E     D    E
solo, en la memoria que se va

Solo:

E|-----------------------------------------------------------------------|
B|-----------------------------------------------------------------------|
G|-11-11p9---9-11-11--11p9---9-11-11--11p9---9---------------------------|
D|---------11--------------11-------------11---9-/-7-/-6-----------------|
A|-------------------------------------------------------7---------------|
E|----------------------------------------------------------7-----0------|

E|--------------------------------------------------------------------|
B|-10-10p9p7-9-10-/-12--10p9h10p9--------------9-9----9---------------|
G|---------------------------------11--11p9----9-9----9---------------|
D|------------------------------------------11------------------------|
A|--------------------------------------------------------------------|
E|--------------------------------------------------------------------|

E|---------14-14----------17--17--------17---------------------------------|
B|--14-14---------14(14)------------------19-------------------------------|
G|--------------------------16--16b18-----------18-16-18-18----16p14----14-|
D|-------------------------------------------------------------------16----|
A|-------------------------------------------------------------------------|
E|-------------------------------------------------------------------------|

E|------------------------------------------------------|
B|-----------------17----17----17-----------------------|
G|--------14-16-b16---b16----b16---b-b16p14-16-14-16----|
D|-----16-----------------------------------------------|
A|------------------------------------------------------|
E|------------------------------------------------------|

|---------------------------------------------|
|-17------------------------------------------|
|----16-14-13---------------------------------|
|--------------14-/-16------------------------|
|---------------------------------------------|
|---------------------------------------------|

Coro:

A
  Y duerme un poco más
     E
los párpados no aguantan ya
        F#m
luego están las decepciones
            D                    A
cuando el cierzo no parece perdonar

sirena, vuelve al mar
   E
varada por la realidad
  F#m
  o de alucinaciones
           D                     A
cuando el cierzo no parece perdonar
                        E
sirena, vuelve al mar varada por la realidad
        F#m                      D                   E
sufrir alucinaciones cuando el cielo no parese escuchar
D   E  A
Uh uh,  uh uh
Composição de Enrique Bunbury / Joaquin Cardiel / Juan Valdivia / Pedro Andreu
Colaboração e revisão:
  • Johan Beltrán
1.473 exibições
    • ½ Tom
    • A
    • Bb
    • B
    • C
    • Db
    • D
    • Eb
    • E
    • F
    • F#
    • G
    • Ab
  • Adicionar à lista

    0 comentários

    Ver todos os comentários

    Conseguiu tocar?

    1 Tocaram 0 Ainda não

    Grave um vídeo tocando La Sirena Varada e nos envie!

    00:00 / 00:00
    outros vídeos desta música
    repetir qualidade Automático
    Outros vídeos desta música
    00:00 / 00:00
    Automático

    Cifra Club Pro

    Aproveite o Cifra Club com benefícios exclusivos e sem anúncios
    Cifra Club Pro
    Aproveite o Cifra Club com benefícios exclusivos e sem anúncios
    OK