Enviar cifraEntrar

Eu Me Rendo (I Surrender)

Hillsong Brasil

Cifra: Principal
exibições 70.710
Tom: E
Intro:  C#m E B A


          C#m
E|----------------------------------|
B|----5-5-----5-5-----5-5-4---------|
G|--------------------------6-4-----|
D|-6-------6-------6----------------|
A|----------------------------------|
E|----------------------------------|


        E
E|----------------------------------|
B|----5-5-----5-5-----5-5-4---------|
G|--------------------------6-4-----|
D|-6-------6-------6----------------|
A|----------------------------------|
E|----------------------------------|


          B
E|----------------------------------|
B|----5-5-----5-5-----5-5-4---------|
G|---------------------------6-4----|
D|--4------4------4-----------------|
A|----------------------------------|
E|----------------------------------|


          A
E|----------------------------------|
B|----5-5-----5-5-----5-5-4---------|
G|---------------------------6-4----|
D|-7-------7-------7----------------|
A|----------------------------------|
E|----------------------------------|


C#m
Eis-me aqui
           E
Prostado outra vez
             B
Pra tudo entregar
       A
Pra tudo entregar

C#m
Leva-me
            E
Perto de Ti, Senhor
              B
Anseio por ti
 A
Anseio por ti

Intro: C#m  E  B  A

C#m
Enche-me
             E
Da graça e do Teu amor
             B
Sacia meu ser
   A
Sacia meu ser

C#m
Abraça-me
           E
Ouve o meu clamor
            B
Fala pra mim
  A
Fala pra mim

Refrão

  C#m
Eu me rendo
  E
Eu me rendo
            B
Pra conhecer-te Mais
             A
Pra conhecer-te Mais

Ponte: A  E  B A C#m  B

       A      E
Vento de poder
      B
Sopra em meu viver
               A
Faz teu querer
             C#m       B
Faz teu querer, em mim

       A     E
Como um vendaval
     B
sobrenatural
              A
Faz teu querer
               C#m      B
Faz teu querer, em mim
  • 1
  • 2
  • 3
  • 4
  • 5
  • 6
  • 7
  • 8
  • 9
  • 10
  • 11
  • 12
    Acordes para:

      0 comentários

        mostrar mais comentários

        Conseguiu tocar?

        9tocaram0ainda não

        Grave um vídeo tocando Eu Me Rendo (I Surrender) e mande pra gente!

        00:00 / 00:00
        outros vídeos desta música
        repetirqualidadeautomática
        • automática
        Outro vídeos desta música
          00:00 / 00:00
          automática
          • automática
          Acordes para:violão e guitarra
          dificuldadeexibiçõescontribuições
          1 versão de Partiturasformatodownloadscontribuição
          fecharplay/pause subir/descer velocidade
            acordes
            fechar
            OK
            Feedback