Cifra Club

Eu Me Rendo (I Surrender)

Hillsong Brasil

Cifra: Principal
exibições 105.333
Tom: F
Intro:  Dm F C A#

            Dm
E|----------------------------------|
B|----6-6-----6-6-----6-6-5---------|
G|--------------------------7-5-----|
D|-7-------7-------7----------------|
A|----------------------------------|
E|----------------------------------|

          F
E|----------------------------------|
B|----6-6-----6-6-----6-6-5---------|
G|--------------------------7-5-----|
D|-7-------7-------7----------------|
A|----------------------------------|
E|----------------------------------|
            C
E|----------------------------------|
B|----6-6-----6-6-----6-6-5---------|
G|---------------------------7-5----|
D|--5------5------5-----------------|
A|----------------------------------|
E|----------------------------------|

            A#
E|----------------------------------|
B|----6-6-----6-6-----6-6-5---------|
G|---------------------------7-5----|
D|-8-------8-------8----------------|
A|----------------------------------|
E|----------------------------------|

Dm
Eis-me aqui
           F
Prostado outra vez
             C
Pra tudo entregar
       A#
Pra tudo entregar

Dm
Leva-me
            F
Perto de Ti, Senhor
              C
Anseio por ti
 A#
Anseio por ti

Intro: Dm  F  C  A#

Dm
Enche-me
             F
Da graça e do Teu amor
             C
Sacia meu ser
   A#
Sacia meu ser

Dm
Abraça-me
           F
Ouve o meu clamor
            C
Fala pra mim
  A#
Fala pra mim

Refrão

  Dm
Eu me rendo
  F
Eu me rendo
            Gm7
Pra conhecer-te Mais
             A#
Pra conhecer-te Mais

Ponte: A#  F  C A# Dm  C

       A#      F
Vento de poder
      C
Sopra em meu viver
               Gm7
Faz teu querer
             Dm       C
Faz teu querer, em mim

       A#     F
Como um vendaval
     C
sobrenatural
              Gm7
Faz teu querer
               Dm      C
Faz teu querer, em mim
Acordes para:

    0 comentários

      mostrar mais comentários

      Conseguiu tocar?

      9tocaram0ainda não

      Grave um vídeo tocando Eu Me Rendo (I Surrender) e mande pra gente!

      00:00 / 00:00
      outros vídeos desta música
      repetirqualidadeautomática
      Outro vídeos desta música
        00:00 / 00:00
        automática
        OK