Cifra Club

Aprenda

It's a New Day

Hillsong London

Cifra: Principal (violão e guitarra)
tom: A
Intro: 

e|------------------------------------------------------------------------------
B|------------------------------------------------------------------------------
G|------------------------------------------------------------------------------
D|-------------------------------------------------7------7---------------------
A|-------4-----4-------2-----2-------4-----4---5-5----5-5-----------------------
E|---5-5---5-5-----0-0---0-0-----2-2---2-2--------------------------------------

Ai uma guitarra faz esse riff junto com o baixo durante o "verse".

Verse 1: 
A                 E 
Beauty for ashes 
F#m                D 
Joy for my pain 
A                      E           F#m       D 
You given me wings to fly again 
 
Verse 2: 
A                 E 
Strength for today 
F#m                     D 
To dance for my sorrows 
A                      E          F#m       D 
Because of You, because of You 
 
Pre-Chorus 1: 
E                                  D 
Shades of grey turn to color 
E                                     D 
A darkened night turns to day 
 
A                    E 
It's a new day 
F#m              D 
It's a new day 
A                              E            F#m     D 
Shadows rise at the glory of the Son 
A                    E 
It's a new day 
F#m              D 
It's a new day 
A                              E              G          A 
The past has gone and life has just begun 
 
Verse 3: 
A                     E 
Hope for my future 
F#m                 D 
A life made brand new 
A                      E           F#m       D 
Because of you, because of you 
 
Pre-Chorus 2: 
E                                      D 
Chains of fear turn to freedom 
E                             D 
Silence breaks into praise 
 
(Chorus) 
Bridge: 
A 
It's a new day 
A 
It's a new day 
A 
It's a new day 
A 
Since you came my way (repeat x2) 
(Pre-Chorus 1) 
(Pre-Chorus 2) 
(Chorus) 
Ending 
A                      E           F#m       D 
The past has gone and life has just begun 
A G F#m G A G F#m G A G F#m G A G F#m G A G F#m G A

Faz os acordes assim:

e|------------------------------------------------------------------------------
B|----10-10-10-10---8\-7/8/10--10-10-10-10----8\-7/8/10-------------------------
G|----9--9--9--9----7\-6/7/9---9--9--9--9-----7\-6/7/9-...--Repete no final-----
D|----7--7--7--7----5\-4/5/7---7--7--7--7-----5\-4/5/7----------algumas vezes---
A|------------------------------------------------------------------------------
E|------------------------------------------------------------------------------
Composição de Tim Michael
Colaboração e revisão:
  • Luis Barros
2.387 exibições
    • ½ Tom
    • A
    • Bb
    • B
    • C
    • Db
    • D
    • Eb
    • E
    • F
    • F#
    • G
    • Ab
  • Adicionar à lista

    0 comentários

    Ver todos os comentários
    00:00 / 00:00
    Outros vídeos desta música
    Repetir Qualidade Automático
    Outros vídeos desta música
    00:00 / 00:00
    Automático

    Cifra Club Pro

    Aproveite o Cifra Club com benefícios exclusivos e sem anúncios
    Cifra Club Pro
    Aproveite o Cifra Club com benefícios exclusivos e sem anúncios
    OK