Cifra Club

Aprenda

My God

Hillsong London

Cifra: Principal (violão e guitarra)
tom: G
Riff da Introdução:

(Repete duas vezes na introdução)

e|---------------------------------------------------------------------------
B|---------------------------------------------------------------------------
G|---------------------------------------------------------------------------
D|------5--------5--------4-5-4---4-5------5--------5-------7-----7--7----7--
A|--2-2---2\-3-3---3\-4-4-------4------2-2---2\-3-3---3\-5-5--5-5---5---5----
E|---------------------------------------------------------------------------

C                  
Your faithful love 
   G            D         Em    
Has always been there for me 
             C   
The greatest love 
      G              D
That I have ever known 
C                     G
What can I give to You? 
               D        Em   
For all You've given to me 
         C 
You gave it all 
   G                 D
And You are all I need 

        D      Em
You are my king 
        C  
You are my God 
            D      Em 
The praises I bring 
             C   
Come from my heart 

             B5
This is for You 
     C          D  
For all You've done for me 
      B5        C  
And I wanted to show You 
D
How much You mean 
(Riff 2)
My God, my God

(Riff da introdução uma vez)

C                  
Your faithful love 
   G            D         Em    
Has always been there for me 
             C   
The greatest love 
      G              D
That I have ever known 
C                     G
What can I give to You? 
               D        Em   
For all You've given to me 
         C 
You gave it all 
   G                 D
And You are all I need 

        D      Em
You are my king 
        C  
You are my God 
            D      Em 
The praises I bring 
             C   
Come from my heart 

             B5
This is for You 
     C          D  
For all You've done for me 
      B5        C  
And I wanted to show You 
D
How much You mean 
(Riff 2)
My God, my God

             B5
This is for You 
     C          D  
For all You've done for me 
      B5        C  
And I wanted to show You 
D
How much You mean 
(Riff 2)
My God, my God

(Riff da introdução uma vez)

(B5 C D dez vezes Fazendo Palm Mute até a quinta vez)
This is for you

             B5
This is for You 
     C          D  
For all You've done for me 
      B5        C  
And I wanted to show You 
D
How much You mean 
(Riff 2)
My God, my God

             B5
This is for You 
     C          D  
For all You've done for me 
      B5        C  
And I wanted to show You 
D
How much You mean 
(Riff 2)
My God, my God
(Riff 2)
My God, My God.

Termina a música com o Riff 3.

Riff 2:

e|---------------------------------------------------------------
B|---------------------------------------------------------------
G|----7/9--11-12---7--11-12---5-5-5-5/7--------------------------
D|----x/x--x--x----x--x--x----x-x-x-x/x--------------------------
A|----5/7--9--10---5--9--10---3-3-3-3/5--------------------------
E|---------------------------------------------------------------

Riff 3:

e|---------------------------------------------------------------
B|---------------------------------------------------------------
G|-----------------------5---------------------------------------
D|-----------------------5---------------------------------------
A|--7-9-10---5-9-10------3---------------------------------------
E|---------------------------------------------------------------
Composição de Marty Sampson
Colaboração e revisão:
  • Luis Barros
2.618 exibições
    • ½ Tom
    • A
    • Bb
    • B
    • C
    • Db
    • D
    • Eb
    • E
    • F
    • F#
    • G
    • Ab
  • Adicionar à lista

    0 comentários

    Ver todos os comentários
    00:00 / 00:00
    Outros vídeos desta música
    Repetir Qualidade Automático
    Outros vídeos desta música
    00:00 / 00:00
    Automático

    Cifra Club Pro

    Aproveite o Cifra Club com benefícios exclusivos e sem anúncios
    Cifra Club Pro
    Aproveite o Cifra Club com benefícios exclusivos e sem anúncios
    OK