Con Todo

Hillsong United

Composição de: Joel Houston
tom: B
      B               F#        G#m          E 
E|-------------|------------|-----------|---------------|
B|-------------|------------|----4-4----|----7-7--------|
G|----8-8------|----3-3-----|---4-4-----|---8-8---------|
D|---9-9---x3--|---4-4---x1-|--6------x3|--9------x1----|
A|--9----------|--4---------|-----------|---------------|
E|-7-----------|-2----------|-4---------|-0-------------|


 este es el punteo de fondo que camvia junto con el arpegio
no puse cuantas veces se repite por que son demaciadas xD


      B               F#        G#m          E 
E|-----7-------|------6------|----11----|-----12--11----------|
B|-------------|-------------|----------|---------------------|
G|-------------|-------------|----------|---------------------|
D|-------------|-------------|----------|---------------------|
A|-------------|-------------|----------|---------------------|
E|-------------|-------------|----------|---------------------|


y en la parte que dice
Tu Luz .... yo ago esto.

E|----------------------------------|
B|----4--------7--------------------|
G|-----4--------9-8--8s3------------|
D|---6--------9---------------------|
A|----------------------------------|
E|----------------------------------|
 y despues en la misma parte pero en la 2da ago esto hasta
 que empiesa el coro
E|------------------|
B|---11--12--11--9--|
G|------------------| x8
D|------------------|
A|------------------|
E|------------------|
Página 1 / 1

Letras e título
Acordes e artista

resetar configurações
OK