Cifra Club

Desert Song

Hillsong United

Cifra: Original (violão e guitarra)
tom: A
Intro:
E|--------------------------------------------
B|-15s14--------------------------------------
G|--------14s16--11--9s14---11----------------
D|-12s11------------------------14s7-11s12s9--
A|--------12s14--9---7s12---9-----------------
E|------------------------------12s5--9s10s7--

E|--------------------------------------------
B|-15s14--------------------------------------
G|--------14s16--11--9s14--11---9s14--16------
D|-12s11--------------------------------------
A|--------12s14--9---7s12--9----7s12--14------
E|--------------------------------------------

Verso
Harmonicos:
E|-----------------------------7----------
B|---7-------------7-------7-----------5--
G|-7---7-------7-5---7---7---7-------7----
D|-------7---7---------------------7------
A|----------------------------------------
E|----------------------------------------

Mesma versão do Hillsongs
E|-------0------------10----9--------
B|---7--------7----------------------
G|-7---7----7----9s11----11----(x3)--
D|-----------------------------------
A|-----------------------------------
E|-----------------------------------

E|-------0---------10-------10-----10---------
B|---7----------8---------8------8-------8--7-
G|-7---7---7s9----------7------7-------7----7-
D|--------------------------------------------
A|--------------------------------------------
E|--------------------------------------------

Ou pode fazer assim também dessa forma tem uma pequena variação, espero que gostem aproveitem para comentar

Intro & Pre-verso: oitavas
E|----------------------------------
B|-15--14--10-12-7--5--10-7--5--12--
G|----------------------------------
D|-12--11--7--9--4--2--7--4--2--9---
A|----------------------------------
E|----------------------------------

E|-------------
B|-------------
G|--6--7--4----
D|-------------
A|--4--5--2----
E|-------------

Verso:
E|------------------
B|------------------
G|------------------
D|--9---12----------
A|--------"12"------
E|------------------

Outro trecho similar a intro:
E|----------------------------------
B|-15--14--10-12-7--5--10-7--5--12--
G|----------------------------------
D|-12--11--7--9--4--2--7--4--2--9---
A|----------------------------------
E|----------------------------------

E|--------------
B|--------------
G|--6--7--4-----
D|--------------
A|--4--5--2-----
E|--------------

logo depois isso:
E|---------------------------------------
B|-15--14--10-12-------------------------
G|---------------12-9--14--12-9--6s14-16-
D|-12--11--7--9-------------------------
A|---------------9--7--12--9--7--4s12-14-
E|---------------------------------------
Composição de Brooke Ligertwood
Colaboração e revisão:
  • Daniel Fazolo
341 exibições
    • ½ Tom
    • A
    • Bb
    • B
    • C
    • Db
    • D
    • Eb
    • E
    • F
    • F#
    • G
    • Ab
  • Adicionar à lista

    0 comentários

    Ver todos os comentários
    00:00 / 00:00
    Outros vídeos desta música
    Repetir Qualidade Automático
    Outros vídeos desta música
    00:00 / 00:00
    Automático

    Cifra Club Pro

    Aproveite o Cifra Club com benefícios exclusivos e sem anúncios
    Cifra Club Pro
    Aproveite o Cifra Club com benefícios exclusivos e sem anúncios
    OK