Notificações Amigos pendentes

      Hillsong United

      Oceans (Where Feet May Fail)

      319.088 exibições
      Tom: C
      Violão Base Intro (Capo na 2ª): Am7  G/B  C  G/B  F
             
      Dedilhado Intro (Capo 3ª):
      
      
           Base: Am7                       G/B     C
         E|-----4-------4-------4--------6---------7---------7--------7---------7---|
         B|---0-------0-------0--------0---------0---------0--------0---------0-----|
         G|-------------------------------------------------------------------------|
         D|-------------------------------------------------------------------------|
         A|-------------------------------------------------------------------------|  
         E|-4----4-4------4-4------4/6-------6/7--------7-7------7-7-------7-7------| 
      
      
                   G/B                                   F
         E|-------2---------2---------2---------2-------0-------0-------0--------0--|
         B|-----0---------0---------0---------0-------0-------0-------0--------0----|
         G|-------------------------------------------------------------------------|
         D|-------------------------------------------------------------------------|
         A|-------------------------------------------------------------------------|
         E|-7\2-------2-2-------2-2-------2-2-----2/0-----0-0-----0-0------0-0------|
      
      
      Obs: O Dedilhado da intro e dos versos são os mesmos 
      
      Dedilhado Refrão:
      
      
                F                  C                 G
         E|-----0-------0-------7--------7---------2---------2--------2---------2---| (3X)
         B|---0-------0-------0--------0---------0---------0--------0---------0-----|   
         G|-------------------------------------------------------------------------|   
         D|-------------------------------------------------------------------------|
         A|-------------------------------------------------------------------------|     
         E|-0----0-0------0-7------7-7-------7/2--------2-2------2-2-------2-2------|
      
         
      
                F                      G/B
         E|-----0-------0-------0--------2----||
         B|---0-------0-------0--------0------||
         G|-----------------------------------||
         D|-----------------------------------||
         A|-----------------------------------||     
         E|-0----0-0------0-0------0-2-------2||
      
            
      
      Intro:  Am7  G/B  C  G/B  F  (mesmo dedilhado)
         
      Verso 1: (Capo 2ª)
      
      Am7              G/B      C
      You call me out upon the waters
                G                F
      The great unknown where feet may fail
      Am7                 G/B     C
      And there I find You in the mystery
             G
      In oceans deep
                F
      My faith will stand
      
      Refrão:
      
      F      C             G        F
      So I will call upon Your name
                  C             G
      And keep my eyes above the waves
                   F
      When oceans rise
                   C              G
      My soul will rest in your embrace
                F           G      Am   G/B C   G  F
      For I am Yours and You are mine
      
      Verso 2: 
      
      Am                    G/B     C
      Your grace abounds in deepest waters
                G
      Your sovereign hand
               F
      Will be my guide
      Am                      G/B       C
      Where feet may fail and fear surrounds me
                  G                      F
      You've never failed and you won't start now
      
      Refrão:
      
      F      C              G         F
      So I will call upon Your name
                  C             G
      And keep my eyes above the waves
                   F
      When oceans rise
                   C              G
      My soul will rest in your embrace
                F           G     Am   G/B  C  G  F
      For I am Yours and You are mine
      
      Instrumental: Am  G/B  C  G  F (2x)
                    Am  F  C  G (2x)
      
      Am                            F
         Spirit lead me where my trust is without borders
                 C
         Let me walk upon the waters
             G
         Wherever You would call me
      Am                          F
         Take me deeper than my feet could ever wander
                  C
         And my faith will be made stronger
                  G
         In the presence of my Saviour (3x)
      
      F                              C
         Spirit lead me where my trust is without borders
                 G
         Let me walk upon the waters
             F
         Wherever You would call me
      Am                         C
         Take me deeper than my feet could ever wander
                  G
         And my faith will be made stronger
                  F
         In the presence of my Saviour  (2x)
      
      Am                            C
         Spirit lead me where my trust is without borders
                 G
         Let me walk upon the waters
             F
         Wherever You would call me
      Am                         C
         Take me deeper than my feet could ever wander
                  G
         And my faith will be made stronger
                  Dm
         In the presence of my Saviour  (x2)
      
      Instrumental: Am C G F  (2x)
        
      Refrão:
      
      F      C             G        F
      So I will call upon Your name
                  C             G
      And keep my eyes above the waves
                   F
      When oceans rise
                   C              G
      My soul will rest in your embrace
                F           G          Am   G/B C   G  F    ( palhetadas de leve para finalizar )
      For I am Yours and You are mine
        Composição: Joel Houston / Matt Crocker / Salomon LigthelmColaboração e revisão:
        • Daniel
        • renan.maian
        • Tiago
        • Ricardo
        • +11

        Comentários 23

        140 .
        • leonardo leonardo: Em 06/07/2016 13:34

          Video aula :)

        • ruben ruben: Em 11/06/2016 12:37

          No dedilhado para quem nao tem capo, use a corda (D) solta, na vez de usar a respectiva corda (B).
          Paz, e Deus abençoe todos.

        • Andrielle Andrielle: Em 30/03/2016 19:19

          Video aulaaaaa please!!

        • Akira Akira: Em 23/02/2016 15:10

          galera consigui o dedilhado
          e na 3casa e o toque normal e com o cap na 2 ou sem mesmo

        • Genesson Genesson: Em 13/08/2015 17:45

          video aula!!!!

        • Lucas Lucas: Em 02/07/2015 13:23

          Galera quero saber o solo de guitarra alguem sabe ?

          • Matheus Matheus: Em 28/09/2015 20:03

            procura no google, por "cifra solo oceans hillsong"

        • Théo Théo: Em 07/03/2015 17:05

          O dedilhado e a cifra estão em tons diferentes??? me ajudem

          • Marlon Marlon: Em 25/03/2015 10:47

            Semi..toca de acordo com a cifra do dedilhado que da boa

          • BruniinhO BruniinhO: Em 06/11/2015 12:19

            capo na segunda casa

        140 cancelar

        conseguiu tocar?

        • •••
        0:00 / 0:00

        Capítulos

          2 versões de Guitar Proformatodownloadscontribuição
          play/pausefechar subir/descer velocidade
          6ª corda E5ª corda A4ª corda D3ª corda G2ª corda B1ª corda E
            acordes
            publicidade
            fechar
            ok