Oceans (Where Feet May Fail)

Hillsong United

Composição de: Joel Houston / Matt Crocker / Salomon Ligthelm
tom: Am
[Intro] Bm7  A/C#  D  A  G  A 

[Tab - Violão Solo Intro]

(com capo na 3ª casa)

Parte 1 De 4

E|-----4-------4-------4-------6-------7----|
B|---0-------0-------0-------0-------0------|
G|------------------------------------------|
D|------------------------------------------|
A|------------------------------------------|
E|-4-----4-4-----4-4-----4-6-----6-7--------|

Parte 2 De 4

E|-------7-------7-------7-------2----------|
B|-----0-------0-------0-------0------------|
G|------------------------------------------|
D|------------------------------------------|
A|------------------------------------------|
E|-7-7----7-7------7-7-----7-2--------------|

Parte 3 De 4

E|-------2-------2-------2-------0----------|
B|-----0-------0-------0-------0------------|
G|------------------------------------------|
D|------------------------------------------|
A|------------------------------------------|
E|-2-2-----2-2-----2-2-----2-0--------------|

Parte 4 De 4

E|-------0-------0-------2------------------|
B|-----0-------0-------0--------------------|
G|------------------------------------------|
D|------------------------------------------|
A|------------------------------------------|
E|-0-0-----0-0-----0-2-----2----------------|

Parte 4 de 4 - Variação

E|-------0-------0-------0------------------|
B|-----0-------0-------0--------------------|
G|------------------------------------------|
D|------------------------------------------|
A|------------------------------------------|
E|-0-0-----0-0-----0-0-----0----------------|

   
[Primeira Parte]

Bm7                   A/C#    D
    You call me out upon the waters
          A                   G
The great unknown where feet may fail
Bm7                      A/C#    D
    And there I find You in the mystery
      A
In oceans deep
          G
My faith will stand

[Refrão]

[Tab - Refrão]

Parte 1 de 2 - 3x

E|----0-------0-------7-------7-------------|
B|--0-------0-------0-------0---------------|
G|------------------------------------------|
D|------------------------------------------|
A|------------------------------------------|
E|-0----0-0-----0-7-----7-7-----7-----------|

E|-----2-------2-------2-------2------------|
B|---0-------0-------0-------0--------------|
G|------------------------------------------|
D|------------------------------------------|
A|------------------------------------------|
E|-2-----2-2-----2-2-----2-2-----2----------|

Parte 2 De 2

E|-----0-------0-------0-------2------------|
B|---0-------0-------0-------0--------------|
G|------------------------------------------|
D|------------------------------------------|
A|------------------------------------------|
E|-0-----0-0-----0-0-----0-2-----2----------|

G            D         A        
  So I will call upon Your name
G             D            A
  And keep my eyes above the waves
             G
When oceans rise
              D               A
My soul will rest in your embrace
          G         A  Bm  
For I am Yours and You are mine

( A/C# D  A  G )

[Segunda Parte]

Bm                        A/C#    D
   Your grace abounds in deepest waters
        A
Your sovereign hand
         G
Will be my guide
Bm                          A/C#    D
   Where feet may fail and fear surrounds me
          A                         G
You've never failed and you won't start now

[Refrão]

G            D         A        
  So I will call upon Your name
G             D            A
  And keep my eyes above the waves
             G
When oceans rise
              D               A
My soul will rest in your embrace
          G         A  Bm       A/C# D  A  G 
For I am Yours and You are mine

( Bm  A/C#  D  A  G )

[Ponte]

Bm                           G
   Spirit lead me where my trust 

Is without borders
        D
Let me walk upon the waters
    A
Wherever You would call me
Bm                         G
   Take me deeper than my feet 

Could ever wander
        D
And my faith will be made stronger
         A
In the presence of my Saviour

G                              D
  Spirit lead me where my trust 

Is without borders
        A
Let me walk upon the waters
    Em
Wherever You would call me
G                         D
  Take me deeper than my feet 

Could ever wander
         A
And my faith will be made stronger
         Em
In the presence of my Saviour 
Bm                  A/C#     D
   Spirit lead me where my trust 

Is without borders
        A
Let me walk upon the waters
    Em
Wherever You would call me
Bm                  A      D
   Take me deeper than my feet 

Could ever wander
         A
And my faith will be made stronger
         Em
In the presence of my Saviour 

( Bm  A  D  A  Em )
( Bm  A  D  A  Em )
  
[Refrão]

G            D         A        
  So I will call upon Your name
G             D            A
  And keep my eyes above the waves
             G
When oceans rise
              D           A
My soul will rest in your embrace
          G         A  Bm      
For I am Yours and You are mine

[Final] A/C#  D  A  G  Bm
Página 1 / 1

Letras e título
Acordes e artista

resetar configurações
OK