Cifra Club

Oceans

Hillsong United

Cifra: Principal (violão e guitarra)
tom: A
[Intro]

Parte 1 de 4
E|-----4--------4--------4--------6--------------------|
B|---0--------0--------0--------0----------------------|
G|-----------------------------------------------------|
D|-----------------------------------------------------|
A|-----------------------------------------------------|
E|-4------4-4------4-4------4-6------6-----------------|

Parte 2 de 4
E|-----7--------7--------7--------7--------------------|
B|---0--------0--------0--------0----------------------|
G|-----------------------------------------------------|
D|-----------------------------------------------------|
A|-----------------------------------------------------|
E|-7------7-7------7-7------7-7------7-----------------|

Parte 3 de 4
E|-----2--------2--------2--------2--------------------|
B|---0--------0--------0--------0----------------------|
G|-----------------------------------------------------|
D|-----------------------------------------------------|
A|-----------------------------------------------------|
E|-2------2-2------2-2------2-2------2-----------------|

Parte 4 de 4
E|-----0--------0--------0--------2--------------------|
B|---0--------0--------0--------0----------------------|
G|-----------------------------------------------------|
D|-----------------------------------------------------|
A|-----------------------------------------------------|
E|-0------0-0------0-0------0-2------2-----------------|

[Primeira Parte]

Parte 1 de 4
E|-----4--------4--------4--------6--------------------|
B|---0--------0--------0--------0----------------------|
G|-----------------------------------------------------|
D|-----------------------------------------------------|
A|-----------------------------------------------------|
E|-4------4-4------4-4------4-6------6-----------------|

Parte 2 de 4
E|-----7--------7--------7--------7--------------------|
B|---0--------0--------0--------0----------------------|
G|-----------------------------------------------------|
D|-----------------------------------------------------|
A|-----------------------------------------------------|
E|-7------7-7------7-7------7-7------7-----------------|

Parte 3 de 4
E|-----2--------2--------2--------2--------------------|
B|---0--------0--------0--------0----------------------|
G|-----------------------------------------------------|
D|-----------------------------------------------------|
A|-----------------------------------------------------|
E|-2------2-2------2-2------2-2------2-----------------|

Parte 4 de 4
E|-----0--------0--------0--------2--------------------|
B|---0--------0--------0--------0----------------------|
G|-----------------------------------------------------|
D|-----------------------------------------------------|
A|-----------------------------------------------------|
E|-0------0-0------0-0------0-2------2-----------------|

Parte 4 de 4 (variação)
E|-----0--------0--------0--------0--------------------|
B|---0--------0--------0--------0----------------------|
G|-----------------------------------------------------|
D|-----------------------------------------------------|
A|-----------------------------------------------------|
E|-0------0-0------0-0------0-0------0-----------------|

You call me out upon the waters
The great unknown where feet may fail
And there I find You in the mystery
In oceans deep, my faith will stand

[Refrão]

[Refrão]

REPETE PARTE 1 e 2 - 3 vezes

Parte 1 de 3
E|-----0--------0--------7--------7--------------------|
B|---0--------0--------0--------0----------------------|
G|-----------------------------------------------------|
D|-----------------------------------------------------|
A|-----------------------------------------------------|
E|-0------0-0------0-7------7-7------7-----------------|

Parte 2 de 3
E|-----2--------2--------2--------2--------------------|
B|---0--------0--------0--------0----------------------|
G|-----------------------------------------------------|
D|-----------------------------------------------------|
A|-----------------------------------------------------|
E|-2------2-2------2-2------2-2------2-----------------|

REPETE PARTE 1 e 2 - 3 vezes

Parte 3 de 3
E|-----0--------0--------0--------2--------------------|
B|---0--------0--------0--------0----------------------|
G|-----------------------------------------------------|
D|-----------------------------------------------------|
A|-----------------------------------------------------|
E|-0------0-0------0-0------0-2------2-----------------|

And I will call upon Your name
And keep my eyes above the waves
When oceans rise
My soul will rest in Your embrace
I am Yours and You are mine

[Intro]

Parte 1 de 4
E|-----4--------4--------4--------6--------------------|
B|---0--------0--------0--------0----------------------|
G|-----------------------------------------------------|
D|-----------------------------------------------------|
A|-----------------------------------------------------|
E|-4------4-4------4-4------4-6------6-----------------|

Parte 2 de 4
E|-----7--------7--------7--------7--------------------|
B|---0--------0--------0--------0----------------------|
G|-----------------------------------------------------|
D|-----------------------------------------------------|
A|-----------------------------------------------------|
E|-7------7-7------7-7------7-7------7-----------------|

Parte 3 de 4
E|-----2--------2--------2--------2--------------------|
B|---0--------0--------0--------0----------------------|
G|-----------------------------------------------------|
D|-----------------------------------------------------|
A|-----------------------------------------------------|
E|-2------2-2------2-2------2-2------2-----------------|

Parte 4 de 4
E|-----0--------0--------0--------2--------------------|
B|---0--------0--------0--------0----------------------|
G|-----------------------------------------------------|
D|-----------------------------------------------------|
A|-----------------------------------------------------|
E|-0------0-0------0-0------0-2------2-----------------|

[Segunda Parte]

Your grace abounds in deepest waters
Your sovereign hand,  will be my guide
Where feet may fail
And fear surrounds me
You've never failed 
And You won't start now

[Refrão]

So I will call upon Your name
And keep my eyes above the waves
When oceans rise
My soul will rest in Your embrace
For I am Yours 
             G#m7  F#4/A#  B  F#11  E
And You are mine   oooooooooooh
             G#m7  F#4/A#  B  F#11  E
And You are mine   oooooooooooh

[Terceira Parte]

G#m7                       
     Spirit lead me where 
     E
My trust is without borders
        B
Let me walk upon the waters
    F#11
Wherever You would call me
G#m7      
     Take me deeper than 
    E
My feet could ever wander
        B
And my faith will be made stronger
         F#11
In the presence of my Savior

E                       
  Spirit lead me where 
     B
My trust is without borders
        F#11
Let me walk upon the waters
    C#m
Wherever You would call me
E      
  Take me deeper than 
    B
My feet could ever wander
        F#11
And my faith will be made stronger
         C#m
In the presence of my Savior

G#m7                  F#4/A#     
     Spirit lead me where 
     B
My trust is without borders
        F#11
Let me walk upon the waters
    C#m
Wherever You would call me
G#m7                  F#4/A#  
     Take me deeper than 
    B
My feet could ever wander
        F#11
And my faith will be made stronger
         C#m
In the presence of my Savior, oh

( G#m7  F#4/A#  B  F#11 C#m ) 
( G#m7  F#4/A#  B  F#11 C#m ) 

[Refrão Final]

E         B          F#11
  I will call upon Your name
E         B            F#11
  Keep my eyes above the waves
E               B           F#11      
  My soul will rest in Your embrace
      E         F#11    G#m7     
I am Yours and You are mine

( F#4/A#  B  F#11  E  G#m7 )
00:00 / 00:00
Outros vídeos desta música
Repetir
Outros vídeos desta música
Composição de Anna Gabriela
Colaboração e revisão:
  • Caico Antunes
  • Thiago Almeida
33.129 exibições
  • Simplificar cifra
    • ½ Tom
    • A
    • Bb
    • B
    • C
    • Db
    • D
    • Eb
    • E
    • F
    • F#
    • G
    • Ab
  • Adicionar à lista

    0 comentários

    Ver todos os comentários

    Entre para oCifra Club PRO

    Tenha acesso a benefícios exclusivos no App e no Site

    • Chega de anúncios

    • Prioridade de compra em lançamentos

    • Mais recursos no app do Afinador

    • Atendimento Prioritário

    • Descontos nos produtos Cifra Club

    • Ajude a produzir mais conteúdo

    00:00 / 00:00
    Capítulos
    • Tocando a Música
    • Apresentação / Equipamentos
    • Ensinando Introdução
    • Ensinando Primeira Parte
    • Ensinando Refrão
    • Ensinando Segundo Refrão
    • Ensinando Terceira Parte
    • Encerramento

    Cifra Club Pro

    Aproveite o Cifra Club com benefícios exclusivos e sem anúncios
    Cifra Club Pro
    Aproveite o Cifra Club com benefícios exclusivos e sem anúncios
    OK