Cifra Club

Aprenda

Love You Like I Do

Him

Tab de baixo: Versão 2
For me it was hard to listen, so that is what I heard.
Try to create your own version or improvise.

G|--------------------|     Intro(4x)
D|--------------------|
A|--------------------|
E|-3-------5h6-5------|

G|------------------------------------------------|  Verse(2x)
D|-2/3-3------------------------------------------|
A|------------------------------------------------|
E|-----5----------------15/3-3-------5h6-5--------|

G|-----------------------------------------------|  Chorus(1x)
D|-----------------------------------------------|
A|-------5--6----6----6-5------------5-6----6----|
E|-6--8-------------------8-6----6-8-------------|

G|------------------------------------------------|
D|------------------------------------------------|
A|-6-5-------------6----6----6-5------------5-6---|
E|-----8-6----5------------------8-6--------------|

G|-----------------|
D|-----------------|
A|-6---6-5h6/8-----|
E|-----------------|

Intro(2x)
Verse(2x)
Chorus(1x)
Verse(2x)
Chorus(2x)

G|-----------------------------------|  Interlude(4x)
D|-----------------------------------|
A|-------------------6----6-5h6/8----|
E|-3------5h6-5----------------------|

About the next part I´m not sure.

G|---  Play something like this.I have no idea,so
D|---  be creative...
A|---
E|-3-

At the end when the drums stop.

G|---------|
D|---------|
A|---------|
E|-3-------|
Compositor não encontrado.
25 exibições

0 comentários

Ver todos os comentários

Conseguiu tocar?

0 Tocaram 0 Ainda não

Grave um vídeo tocando Love You Like I Do e nos envie!

00:00 / 00:00
Outros vídeos desta música
Repetir Qualidade Automático
Outros vídeos desta música
00:00 / 00:00
Automático

Cifra Club Pro

Aproveite o Cifra Club com benefícios exclusivos e sem anúncios
Cifra Club Pro
Aproveite o Cifra Club com benefícios exclusivos e sem anúncios
OK