The Beginning Of The End

Him

Composição de: Ville Valo
tom: G
Intro 
 
|----------------------------------| 
|----------------------------------| 
|----------------------------------| 
|----------------------------------| 
|0--0-3-0-0-3-0-0-3-0-3-0-0-3-0-3-3| 
|----------------------------------| 
 
|-------------------------------| 
|-------------------------------| 
|-------------------------------| 
|-------------------------------|        
|0-2-0-0-2-0-0-2-0-2-0-0-2-0-2-2| 
|-------------------------------| 
 
|-------------------------------| 
|-------------------------------| 
|-------------------------------| 
|-------------------------------| 
|0-3-0-0-3-0-0-3-0-3-0-0-3-0-3-3| 
|-------------------------------| 
 
|---------------------------------| 
|---------------------------------| 
|---------------------------------| 
|---------------------------------| 
|0-2-0-0-2-0-0-2-0-2-0/1/2/3/4/5/6| 
|---------------------------------| 
 
|-------------------------------| 
|-------------------------------| 
|-------------------------------| 
|5-8-5-5-8-5-5-8-5-8-5-5-8-5-8-8| 
|5-8-5-5-8-5-5-8-5-8-5-5-8-5-8-8| 
|5-8-5-5-8-5-5-8-5-8-5-5-8-5-8-8| 
                                    }8X 
|-------------------------------| 
|-------------------------------| 
|-------------------------------| 
|5-7-5-5-7-5-5-7-5-7-5-5-7-5-7-7|      
|5-7-5-5-7-5-5-7-5-7-5-5-7-5-7-7| 
|5-7-5-5-7-5-5-7-5-7-5-5-7-5-7-7| 
 
|---| 
|---| 
|---| 
|5-5| 
|5-5| 
|5-5| 
 
 
Chorus 
 
|-------------| 
|-------------| 
|-------------| 
|0---5---3---7|  2X 
|0---5---3---7| 
|0---5---3---7| 
 
 
Post Chorus 
 
|-------------------------------| 
|-------------------------------| 
|-------------------------------| 
|5-8-5-5-8-5-5-8-5-8-5-5-8-5-8-8| 
|5-8-5-5-8-5-5-8-5-8-5-5-8-5-8-8| 
|5-8-5-5-8-5-5-8-5-8-5-5-8-5-8-8| 
                                    }8X 
|-------------------------------| 
|-------------------------------| 
|-------------------------------| 
|5-7-5-5-7-5-5-7-5-7-5-5-7-5-7-7|      
|5-7-5-5-7-5-5-7-5-7-5-5-7-5-7-7| 
|5-7-5-5-7-5-5-7-5-7-5-5-7-5-7-7| 
 
|---| 
|---| 
|---| 
|5-5| 
|5-5| 
|5-5| 
 
 
Verse 
 
|----| 
|----| 
|----| 
|5-5-| 
|5-5-| 
|5-5-| 
 
 
Chorus 
 
|-------------| 
|-------------| 
|-------------| 
|0---5---3---7|  2X 
|0---5---3---7| 
|0---5---3---7| 
 
 
Post Chorus 
 
|-------------------------------| 
|-------------------------------| 
|-------------------------------| 
|5-8-5-5-8-5-5-8-5-8-5-5-8-5-8-8| 
|5-8-5-5-8-5-5-8-5-8-5-5-8-5-8-8| 
|5-8-5-5-8-5-5-8-5-8-5-5-8-5-8-8| 
                                    }4X 
|-------------------------------| 
|-------------------------------| 
|-------------------------------| 
|5-7-5-5-7-5-5-7-5-7-5-5-7-5-7-7|      
|5-7-5-5-7-5-5-7-5-7-5-5-7-5-7-7| 
|5-7-5-5-7-5-5-7-5-7-5-5-7-5-7-7| 
 
 
Bridge 
 
|-------------------------------| 
|-------------------------------|            
|-------------------------------| 
|-------------------------------| 
|-------------------------------| 
|0-3-0-0-3-0-0-3-0-3-0-0-3-0-3-3| 
                                    }4X (1st Guitar) 
Página 1 / 1

Letras e título
Acordes e artista

resetar configurações
OK