Cifra Club

The Beginning Of The End

Him

Tab de baixo: Principal
Part 1

G|---------------------------|--------------------------|
D|---------------------------|--------------------------|
A|---0--3--3--0--3--3--0--3--|--0--3--3--0--3--0--3--3--|
E|---------------------------|--------------------------|

 ||--------------------------|--------------------------|
 ||--------------------------|--------------------------|
 ||--0--2--2--0--2--2--0--2--|--0--2--2--0--2--0--2--2--|
 ||--------------------------|--------------------------|


Part 2

 ||--------------------------|--------------------------|
 ||--------------------------|--------------------------|
 ||--0--0--------------------|--------------------------|
 ||--------------------------|--------------------------|

Part 3

 ||--------------------------|--------------------------|
 ||--------------------------|--------------------------|
 ||--0----------5------------|--3--------------7--------|
 ||--------------------------|--------------------------|

Part 4

 ||--------------------------|--------------------------|
 ||--------------------------|--------------------------|
 ||--------------------------|--------------------------|
 ||--0--3--3--0--3--3--0--3--|--0--3--3--0--3--0--3--3--|

 ||--------------------------|--------------------------|
 ||--------------------------|--------------------------|
 ||--------------------------|--------------------------|
 ||--0--2--2--0--2--2--0--2--|--0--2--2--0--2--0--2--2--|


Part 5


 ||--------------------------|
 ||--------------------------|
 ||--3--------------------3--|
 ||--------------------------|

Part 6a

 ||--------------------------|
 ||--------------------------|
 ||--3--3--3--3--3--3--3--3--|
 ||--------------------------|

Part 6b

 ||--------------------------|--------------------------|
 ||--------------------------|--------------------------|
 ||--0--3--3--0--3--3--0--3--|--0--2--2--0--2--0--2--2--|
 ||--------------------------|--------------------------|

Part 6c


 ||--------------------------|--------------------------|
 ||--------------------------|--------------------------|
 ||--3--3--3--3--3--3--3--3--|--5--5--5--5--5--5--5--5--|
 ||--------------------------|--------------------------|


ORDER:

Part 1: x4
Part 2: x1
Part 3: x2
Part 1: x4
Part 2: x2
Part 3: x2
Part 1: x2
Part 4: x4
Part 5: x1
Part 3: x4
Part 6a: x1
Part 6b: x1
Part 6a: x1
Part 6b: x1
Part 6c: x1
Part 1: x2
Composição de Ville Valo
Colaboração e revisão:
  • Hellektra
228 exibições

0 comentários

Ver todos os comentários

Conseguiu tocar?

0 Tocaram 0 Ainda não

Grave um vídeo tocando The Beginning Of The End e nos envie!

00:00 / 00:00
Outros vídeos desta música
Repetir Qualidade Automático
Outros vídeos desta música
00:00 / 00:00
Automático

Cifra Club Pro

Aproveite o Cifra Club com benefícios exclusivos e sem anúncios
Cifra Club Pro
Aproveite o Cifra Club com benefícios exclusivos e sem anúncios
OK