Wicked Game

Him

Composição de: Chris Isaak
tom: A
Intro: Bm  A  E
 
Riff 
E|-2----0----------------------------------|
B|---3----3--2----0------------------------|
G|-------------4----4-2--1-----1-2-4~~~~---| 
D|----------------------2----2-------------| 
A|-----------------------------------------| 
E|-----------------------------------------| 
 Bm           A         E         E
  
 
Fill 2 
e|-----------| 
B|-----------| 
G|----1-2-4--| 
D|--2--------| 
A|-----------| 
E|-----------|
Página 1 / 1

Letras e título
Acordes e artista

resetar configurações
OK