Cifra Club

Wings Of a Butterfly

Him

Tab de baixo: Principal
Intro
G - |------------------|
D - |------------------|
A - |------1-----------|
D - |-7-7----------7--7|

Chorus
G - |------------------------------------------------|
D - |------------------------------------------------|
A - |1-1-1-1-1---------------------------------------|
D - |----------3-5-7--7-7-7-7-7--7-7-7-7-7-5-4-2-7-77|

Verse
G|------------------------------------------------------------------------|
D|------------------------------------------------------------------------|
A|-----------------------------------------------------------------(0--0)-|
D|7--9---9---(9)-----7--9-----9--7--7-----7-9-7-9-11-9-7---(2---)---------|
                   *play parenthesized notes second time through*

Bridge
G|------------------------------------------------------------------------------|
D|------------------------------------------------------------------------------|
A|------------------------------------------------------------------------------|
D|4----7--6--4-2--------4---7--2-----0-2--4----7--6--4-2-----0--2--4----7--2----|

G|-------------------------------------------------------------------------------------------------|
D|-------------------------------------------------------------------------------------------------|
A|--------------------------------------------------------------------------5---4---7----8---------|
D|4----7--6--4-2--------4---7--2-----0-2--4----7--6--4-2-----0--2--4----7---------------------7-7--|
00:00 / 00:00
Outros vídeos desta música
Repetir
Outros vídeos desta música
Compositor não encontrado.
Colaboração e revisão:
  • Hellektra
2.334 exibições

0 comentários

Ver todos os comentários

Conseguiu tocar?

0 Tocaram 0 Ainda não

Grave um vídeo tocando Wings Of a Butterfly e nos envie!

Entre para oCifra Club PRO

Tenha acesso a benefícios exclusivos no App e no Site

  • Chega de anúncios

  • Prioridade de compra em lançamentos

  • Mais recursos no app do Afinador

  • Atendimento Prioritário

  • Descontos nos produtos Cifra Club

  • Ajude a produzir mais conteúdo

00:00 / 00:00

Cifra Club Pro

Aproveite o Cifra Club com benefícios exclusivos e sem anúncios
Cifra Club Pro
Aproveite o Cifra Club com benefícios exclusivos e sem anúncios
OK