Cifra Club

471 - Confiei No Meu Senhor

Hinário Adventista

Cifra: Principal (violão e guitarra)
tom: F
[Intro]

E|--8--8--8--------8--8-----------7--7--8--10--8--7--------------]
B|-----------8--8--------10--10----------------------10--8-------|
G|---------------------------------------------------------------]
D|---------------------------------------------------------------|
A|---------------------------------------------------------------|
E|---------------------------------------------------------------|

E|---------------------------------------------------------------]
B|--5--5--5--6--8--8--8--10--8--6--6-----------------------------|
G|------------------------------------7--7-----------------------]
D|---------------------------------------------------------------|
A|---------------------------------------------------------------|
E|---------------------------------------------------------------|
 
E|---------------------------------------------------------------]
B|--5--6--6--6--8--10--8--6--------------------------------------|
G|---------------------------5--5--------------------------------]
D|---------------------------------------------------------------|
A|---------------------------------------------------------------|
E|---------------------------------------------------------------|
 
G7                 C
1. Confiei no meu Senhor,
  F            Bb
    E Ele me ouviu;
  D               G
    Do pecado me livrou,
 Em7                   F     
    E a vida em mim surgiu.

Côro:
    C             Dm7
    Muitos O verão e temerão,
    G7                       C   
    Deus, Criador da terra e Céu.
    Em7       Am7          Dm
    Bem aventurado o que confia no Senhor.
       F            Dm7    G7   C
    A Cristo honra, glória e louvor!

 G7                     C
2. Os meus pés guiou no bem;
  F                Bb
    Um sol em mim nasceu;
  D                 G
    Minha vida há de ser
Em7                    F     
    Um hino ao meu bom Deus.
00:00 / 00:00
Outros vídeos desta música
Repetir
Outros vídeos desta música
Composição de Valdecir S. Lima / Lineu F. Soares
Colaboração e revisão:
  • thiago marques
  • Guta
12.210 exibições
    • ½ Tom
    • A
    • Bb
    • B
    • C
    • Db
    • D
    • Eb
    • E
    • F
    • F#
    • G
    • Ab
  • Adicionar à lista

    0 comentários

    Ver todos os comentários

    Entre para oCifra Club PRO

    Tenha acesso a benefícios exclusivos no App e no Site

    • Chega de anúncios

    • Prioridade de compra em lançamentos

    • Mais recursos no app do Afinador

    • Atendimento Prioritário

    • Descontos nos produtos Cifra Club

    • Ajude a produzir mais conteúdo

    00:00 / 00:00

    Cifra Club Pro

    Aproveite o Cifra Club com benefícios exclusivos e sem anúncios
    Cifra Club Pro
    Aproveite o Cifra Club com benefícios exclusivos e sem anúncios
    OK